fairytale

(/) Slide Up  (\) Slide Down  (h) Hammer On  (p) Pull Off  (b) Bend (r) Release (v) Vibrato


E|--------0--2--0-----0--2--0--------5--7--5------------------5-----|--
B|--0--5-----------5-----------5--2-----------9--5--7--9--10-----7--|--
G|------------------------------------------------------------------|--
D|------------------------------------------------------------------|--
A|------------------------------------------------------------------|--
E|------------------------------------------------------------------|--



E|--5--7--5--------------------------------2--5--2-----0--2--0-----|--
B|-----------9--5--5--7--9--7--5--1--0--5-----------5-----------5--|--
G|-----------------------------------------------------------------|--
D|-----------------------------------------------------------------|--
A|-----------------------------------------------------------------|--
E|-----------------------------------------------------------------|--



E|-----------------------------------------------------------------------------------------
B|-----------------------------------------------------------------------------------------
G|-----------------------------------------------------------------------------------------
D|--------------------------------0--2--0--------------------0-----0--2--0-----------------
A|-----0--2--4--2--0--4--2--0--------------4--0--0--2--4--5-----2-----------4--0--0--2--4--
E|--2--------------------------4-----------------------------------------------------------



E|-----------------------------------------
B|-----------------------------------------
G|-----------------------------------------
D|--------------------0--------------------
A|--2--0--------0--4-----4--0--2--4--2--0--
E|--------4--2-----------------------------
http://www.guitartabcreator.com
Guitar Tab Creator is intended to store guitar tab created through the tool. It currently does not support in-line text editing. Any text you place in here will be lost. If you need to comment on your tab, please use the "Tab Notes" section located below.