"Al Taller Del Maestro" by Alex Campos

(/) Slide Up  (\) Slide Down  (h) Hammer On  (p) Pull Off  (b) Bend (r) Release (v) Vibrato

Guitar 1
E|---------------------------------------------------------------------------------------|--
B|-----------3-----------1-----------0--------------------1--------0---------------------|--
G|--------0--------0--------------0--------0-----------0-----0--------0-----0h2p0-----0--|--
D|-----2--------2-----2--------2--------2-----2-----0-----------0--------0---------2-----|--x8
A|--3-----------------------3------------------------------------------------------------|--
E|-----------------------------------------------3---------------------------------------|--


Guitar 2
E|------------------------------------------------------------------------------------------|--
B|--------1--------1-----1--------1--------1-----1-----------1--------0---------------------|--
G|-----0--------0--------------0--------0-----------------0-----0--------0-----0h2p0-----0--|--x8
D|-----------2--------2--------------2--------2--------0-----------0--------0---------2-----|--
A|--3-----------------------3---------------------------------------------------------------|--
E|--------------------------------------------------3---------------------------------------|--


C G C
Ay como me duele estar despierto y no poder cantar
G C
cómo expresarte sin palabras, me muero si no estás.
G C
El tiempo pasa y todo cambia, hoy lloro de soledad;
G C
el sueño que llevo en el alma de repente ya no está;
G Am - G
que la sonrisa se ha marchado // mis lagrimas caerán //

C G C
Al taller del maestro vengo, pues El me curará
G Am
me tomará entre sus brazos y cada herida sanará
G C
las herramientas del maestro, mi alma El remendará
G Dm
martillo en mano y mucho fuego, aunque me duela ayudará...
Am F
a conocerlo y entenderlo, a saber que nada merezco,
C Dm
amar es más que un pretexto, es una entrega, es un negar
F Am - G
más que aquel sentimiento, es la decisión de amar...

Am G
Al taller del maestro vengo / ahí, ay el sol se pondrá
Am G
Al taller del maestro vengo / carpintero mi alma aquí está
Am G
Al taller del maestro vengo / no importa el tiempo que allí he de estar
INTRO (Sin repetir el 'Bis')
Al taller del maestro vengo...

C G C
Ay de aquellos días que hizo frio, el sol no apareció;
G C
cuando el talento no lo es todo y el silencio vale más
G C
que mil palabras sin sentido; la vida que morirá
G C
si tu no estás aquí conmigo de qué sirve mi cantar,
G C
¿para qué la fama y las estrellas, si el maestro allí no está?
G Am
¿para qué decirte que TE AMO, si contigo no quiero estar?


Al taller del maestro vengo ...
http://www.guitartabcreator.com
Guitar Tab Creator is intended to store guitar tab created through the tool. It currently does not support in-line text editing. Any text you place in here will be lost. If you need to comment on your tab, please use the "Tab Notes" section located below.