Riffs 1 + 2

(/) Slide Up  (\) Slide Down  (h) Hammer On  (p) Pull Off  (b) Bend (r) Release (v) Vibrato


E|--------------------------------------------------
B|--------------------------------------------------
G|--------------------------------------------------
D|--------------------------------------------------
A|--------------1-----------3-----------2-----------
E|--0--2--3--4-----4--3--2-----4--3--2-----3--2--1--



E|--------------------------------------------------------------------------------------
B|--------------------------------------------------------------------------------------
G|--------------------------------------------------------------------------------------
D|--------------------------------------------------------------------------------------
A|--1-----------2-----------3-----------2-----------1-----------7--7--7--7--------------
E|-----2--1--2-----3--2--3-----4--3--4-----3--2--3-----2--1--2--------------8--8--8--8--
http://www.guitartabcreator.com
Guitar Tab Creator is intended to store guitar tab created through the tool. It currently does not support in-line text editing. Any text you place in here will be lost. If you need to comment on your tab, please use the "Tab Notes" section located below.