Melting Clocks

(/) Slide Up  (\) Slide Down  (h) Hammer On  (p) Pull Off  (b) Bend (r) Release (v) Vibrato
E|---3---3---3-----3---3---3-
B|-0---0---0---0h1---1---1---
G|---------------------------
D|---------------------------
A|---------------------------
E|---------------------------



E|--0--0--0--
B|--1--0--3--
G|--0--0--0--
D|--2--2--2--
A|--0--3--3--
E|--x--x--x--



E|--3--0--0--0--0-----------
B|--0--0--1--0--3-----------
G|--0--0--0--0--0-----------
D|--0--2--2--2--2-----------
A|--2--3--0--3--3-----------
E|--3--x--x--x--x-----------



E|--0--0--3--0--
B|--0--0--3--0--
G|--0--2--0--0--
D|--2--0--0--2--
A|--2--0--2--3--
E|--0--2--3--x--



E|--0--0--3--0--0--0--0--
B|--0--0--3--0--1--0--3--
G|--0--2--0--0--0--0--0--
D|--2--0--0--2--2--2--2--
A|--2--0--2--3--0--3--3--
E|--0--2--3--x--x--x--x--



E|---3---3---3-----3---3---3-
B|-0---0---0---0h1---1---1---
G|---------------------------
D|---------------------------
A|---------------------------
E|---------------------------



E|--0--2--0--
B|--0--3--1--
G|--0--0--0--
D|--2--0--2--
A|--3--2--0--
E|--x--x--x--



E|--3----8----3----8--
B|--0----0----0----0--
G|--0----0----0----0--
D|--0----0----0----0--
A|--2----7----2----7--
E|--3----8----3----8--



E|--3----8----3----8----10--
B|--0----0----0----0----0---
G|--0----0----0----0----0---
D|--0----0----0----0----0---
A|--2----7----2----7----9---
E|--3----8----3----8----10--



E|--3----8----3----10----3----8----3--
B|--0----0----0----0-----0----0----0--
G|--0----0----0----0-----0----0----0--
D|--0----0----0----0-----0----0----0--
A|--2----7----2----9-----2----7----2--
E|--3----8----3----10----3----8----3--
http://www.guitartabcreator.com
Guitar Tab Creator is intended to store guitar tab created through the tool. It currently does not support in-line text editing. Any text you place in here will be lost. If you need to comment on your tab, please use the "Tab Notes" section located below.