riff

(/) Slide Up  (\) Slide Down  (h) Hammer On  (p) Pull Off  (b) Bend (r) Release (v) Vibrato

E|--------0--5--2--0--2--0--------7--5--
B|-----0--------------------2-----------
G|-----------------------------2--------
D|--------------------------------------
A|--------------------------------------
E|--2-----------------------------------



E|--------0--5--2--0--2--0-----------
B|-----0--------------------2-----4--
G|-----------------------------2-----
D|-----------------------------------
A|-----------------------------------
E|--2--------------------------------
http://www.guitartabcreator.com
Guitar Tab Creator is intended to store guitar tab created through the tool. It currently does not support in-line text editing. Any text you place in here will be lost. If you need to comment on your tab, please use the "Tab Notes" section located below.