Nightmare Solo

(/) Slide Up  (\) Slide Down  (h) Hammer On  (p) Pull Off  (b) Bend (r) Release (v) Vibrato
E|--12/17--17--16--16--15--15--------------------------------------
B|-----------------------------18--15--------------14--15--17--15--
G|-------------------------------------12--13--14------------------
D|-----------------------------------------------------------------
A|-----------------------------------------------------------------
E|-----------------------------------------------------------------



E|--12/17--17--16--16--15--15--------------------------------------------------------------
B|-----------------------------18--15------15--------------11--12--13--15--15--14--13--12--
G|-------------------------------------14------12--13--14----------------------------------
D|-----------------------------------------------------------------------------------------
A|-----------------------------------------------------------------------------------------
E|-----------------------------------------------------------------------------------------



E|---------------------15--17--------------------------------------14--15--16--
B|--15/18--17--16--17----------------------------------14--15--17--------------
G|-----------------------------------------14--15--17--------------------------
D|-----------------------------14--15--17--------------------------------------
A|-----------------------------------------------------------------------------
E|-----------------------------------------------------------------------------



E|--------------------------------------13--14--15--15--13--
B|--------------------------14--15--17----------------------
G|--------------14--15--17----------------------------------
D|--14--15--17----------------------------------------------
A|----------------------------------------------------------
E|----------------------------------------------------------



E|--17--13------------------17--13----------------------------------------------17--18--17--
B|----------15--14------------------15----------------------------------15--18--------------
G|------------------15--14--------------14------------------14--15--14----------------------
D|------------------------------------------15------12--15----------------------------------
A|----------------------------------------------17------------------------------------------
E|------------------------------------------------------------------------------------------



E|--15--------------------------
B|------15--18--17--18--20--20--
G|------------------------------
D|------------------------------
A|------------------------------
E|------------------------------



E|--------------------------------------------
B|--15--18--13--20--12--18--10--13--10--9--6--
G|--------------------------------------------
D|--------------------------------------------
A|--------------------------------------------
E|--------------------------------------------



E|--------------------------------------------------13/18--17--------------------------
B|----------------------------------------------15-------------18p17-------------------
G|--------------------------5--6--5--6------14------------------------19p18------------
D|--------------6--7--6--7--------------15-----------------------------------20p19-----
A|--5--8--5--8-------------------------------------------------------------------------
E|-------------------------------------------------------------------------------------



E|----------------------------------------------------------------------------------18--17--
B|----------------------19--20--21--21--20--18------------------------------18--20----------
G|--19--18--19--20--21--------------------------21--20--18--17--19--20--21------------------
D|------------------------------------------------------------------------------------------
A|------------------------------------------------------------------------------------------
E|------------------------------------------------------------------------------------------



E|----------------------------
B|----------------------------
G|----------------------------
D|--10--10--9--8--7-----0--3--
A|-------------------8--------
E|----------------------------
http://www.guitartabcreator.com
Guitar Tab Creator is intended to store guitar tab created through the tool. It currently does not support in-line text editing. Any text you place in here will be lost. If you need to comment on your tab, please use the "Tab Notes" section located below.