A Burning Fire (Original Song)

(/) Slide Up  (\) Slide Down  (h) Hammer On  (p) Pull Off  (b) Bend (r) Release (v) Vibrato

Stave 1:

E|--3--3/3-----------------3--3--3-----2--------------------2-----------------------------
B|--3--3----3--------------3--3--3-----3--------1--1--1-----3--------------1--------------
G|-------------0-----------------------2--------------------2-----------2-----------0-----
D|-----2----------0-----------2--2--2-----------2--2--2--2--------------------------------
A|--2--3-------------2-----2--3--3--2-----0--2--3--3--3--2-----0--2--3-----------2--------
E|--3-------------------3--3--------------------------------------------------3--------3--

Stave 2:

E|-----------------------------------------------------------------------------------------
B|-----------------------------------------------------------------------------------------
G|-----0--------------0--------0--------------0--------0--------------0--------0--------2--
D|--0--------0-----0--------0--------0-----2--------2--------2-----1--------1--------1-----
A|--------------------------------------3--------3--------3-----1--------1--------1--------
E|--------3-----3--------3--------3--------------------------------------------------------

Stave 3:

E|-----2--------2-----------------------------------3--3--3--3--3--3--3--3--3--3--3--3--3--
B|--3--------3--------------------------------------3--3--3--3--3--3--3--3--3--3--3--3--3--
G|--------2--------------------0--------0--------------------------------------------------
D|--------------------------2--------2--------2--2--------------------2--2--2--2--2--2-----
A|-----------------0--2--3--------3--------3--------2--2--2--2--2--2--3--3--3--3--3--3--2--
E|--------------------------------------------------3--3--3--3--3--3--------------------3--

Stave 4:

E|--3--3--3--3--3--3--3--3--3--3--3-----2--2--------------------------2--2-----------------
B|--3--3--3--3--3--3--3--3--3--3--3-----3--3--1--1--1--1--1--1--------3--3--1--3--1--3-----
G|--------------------------------------2--2-----2--2--2--2--2--------2--2--2--------------
D|--------------0--2--2--2--2--2--2--2--------2-----------------2--2-----------4--2--4-----
A|--2--2--2--2--3--3--3--3--3--3--3--2--------3--3--3--3--3--3--2--2--------3--5--3--5-----
E|--3--3--3--3--3-----------------------------------------------------------------------0--

Stave 5:

E|-------------------------------------------------------------------------------------
B|-----------------1--------------1----------------------------------------------------
G|-------------------------------------------------------------------------------------
D|-----------0-----2--0--------0--2----------5h7--5--5h7p5----------------5--5h7/9\7h5h
A|-----------2--3--3-----------2--3-----5/7-----------------7--5--7--5/7---------------
E|--2--2--3--------------2--3--------3-------------------------------------------------

Stave 6:

E|--------3--8---
B|--------3--8---
G|--------4--9---
D|--------5--10--
A|--7--5--5--10--
E|--------3--8---

http://www.guitartabcreator.com
Guitar Tab Creator is intended to store guitar tab created through the tool. It currently does not support in-line text editing. Any text you place in here will be lost. If you need to comment on your tab, please use the "Tab Notes" section located below.