Last Resort

(/) Slide Up  (\) Slide Down  (h) Hammer On  (p) Pull Off  (b) Bend (r) Release (v) Vibrato


E|----------------------------------------
B|----------------------------------------
G|--9--9----7--7----5--5----4--4----7--7--
D|--9--9----7--7----5--5----4--4----7--7--
A|--7--7----5--5----3--3----2--2----5--5--
E|--7--7----5--5----3--3----2--2----5--5--



E|-----------------------------------------------------------------------------------
B|-----------------------------------------------------------------------------------
G|-----------------------------------------------------------------------------------
D|-----------9--------------------9-------------------9-------------------9----------
A|-7-10-9-10---10-9-10----10-9-10---10-9-10---10-9-10---10-9-10---10-9-10---10-9-10--
E|---------------------10-------------------8-------------------7--------------------



E|-----------------
B|-----------------
G|-----------------
D|-4-4-4-4-7-7-7-7-
A|-2-2-2-2-5-5-5-5-
E|-----------------



E|-
B|-
G|-
D|-
A|-
E|-
http://www.guitartabcreator.com
Guitar Tab Creator is intended to store guitar tab created through the tool. It currently does not support in-line text editing. Any text you place in here will be lost. If you need to comment on your tab, please use the "Tab Notes" section located below.