Weep Themselves to Sleep

(/) Slide Up  (\) Slide Down  (h) Hammer On  (p) Pull Off  (b) Bend (r) Release (v) Vibrato


E|---------------------------------------------------------
B|---------------------------------------------------------
G|-----------------------------------5--7b9p5--7b9p5--7b9--
D|-----------------------5--5--7--7------------------------
A|-----------5--5--7--7------------------------------------
E|--5--8--8------------------------------------------------



E|------------------------------------------------------------
B|--5--7--8--7--8--7--5-----5--7--8--7--8--7--5---------------
G|-----------------------7-----------------------7b7--5--7b9--
D|------------------------------------------------------------
A|------------------------------------------------------------
E|------------------------------------------------------------



E|----------------------17--17----------------------17--17-----
B|--------------17--17----------------------17--17-------------
G|--14--17--17------------------14--17--17---------------------
D|----------------------------------------------------------5--
A|-------------------------------------------------------------
E|-------------------------------------------------------------



E|----------------------
B|----------------------
G|--5h7p5h7p5-----------
D|-------------7--5--7--
A|----------------------
E|----------------------



E|--------------------
B|--------------------
G|--7h9p7h9-----------
D|-----------7--5--7--
A|--------------------
E|--------------------
http://www.guitartabcreator.com
Guitar Tab Creator is intended to store guitar tab created through the tool. It currently does not support in-line text editing. Any text you place in here will be lost. If you need to comment on your tab, please use the "Tab Notes" section located below.