Opwekking 720

(/) Slide Up  (\) Slide Down  (h) Hammer On  (p) Pull Off  (b) Bend (r) Release (v) Vibrato

Intro riff
E|--------------------------
B|--8--------6--------5-----
G|-----5--5-----5--5-----5--
D|--------------------------
A|--------------------------
E|--------------------------

Akkoorden Refrijn

E|-----------------
B|-----------------
G|--12--12--9--10--
D|--10--12--7--10--
A|-----------------
E|-----------------



http://www.guitartabcreator.com
Guitar Tab Creator is intended to store guitar tab created through the tool. It currently does not support in-line text editing. Any text you place in here will be lost. If you need to comment on your tab, please use the "Tab Notes" section located below.