Opwekking 562

(/) Slide Up  (\) Slide Down  (h) Hammer On  (p) Pull Off  (b) Bend (r) Release (v) Vibrato


E|-------------------------------------------------13--12-------------------------
B|---------------6--5----------------13--13/15\13----------15--13--12--13--15/17--
G|--5--5/7--7\5--------7--5--7--7/9-----------------------------------------------
D|--------------------------------------------------------------------------------
A|--------------------------------------------------------------------------------
E|--------------------------------------------------------------------------------



E|----------------------------------------------------------------------------------------
B|--10--10/12--12/13--8--10--10/12--13--8--11--11/13--13/15--13---------------------------
G|----------------------------------------------------------------------------------------
D|----------------------------------------------------------------------------------------
A|----------------------------------------------------------------------------------------
E|----------------------------------------------------------------------------------------



E|------------------------------------------------10--10--
B|--6--6h8--8/10--8--5h8--8/10--10h12--12/14--14----------
G|--------------------------------------------------------
D|--------------------------------------------------------
A|--------------------------------------------------------
E|--------------------------------------------------------
http://www.guitartabcreator.com
Guitar Tab Creator is intended to store guitar tab created through the tool. It currently does not support in-line text editing. Any text you place in here will be lost. If you need to comment on your tab, please use the "Tab Notes" section located below.