Wichita Lineman by Glen Campbell

(/) Slide Up  (\) Slide Down  (h) Hammer On  (p) Pull Off  (b) Bend (r) Release (v) Vibrato


E|-----------------0--3-----------------0--3--1----1--
B|-----------------1--3-----------------1--3--3----1--
G|--3--2-----------2--3--3--2-----------2--3--2----2--
D|--------3--0-----3--3--------3--0-----3--3--3----3--
A|--------------3--3--3--------------3--3--3--1----0--
E|-----------------x--x-----------------x--x--x----x--



E|--1--1--3--
B|--3--1--3--
G|--2--2--3--
D|--3--3--3--
A|--0--0--3--
E|--x--x--x--
http://www.guitartabcreator.com
Guitar Tab Creator is intended to store guitar tab created through the tool. It currently does not support in-line text editing. Any text you place in here will be lost. If you need to comment on your tab, please use the "Tab Notes" section located below.