Remembrance

(/) Slide Up  (\) Slide Down  (h) Hammer On  (p) Pull Off  (b) Bend (r) Release (v) Vibrato


Verse (x2)

D|-------------------------------
A|-------------------------------
F|-------------------------------
C|-------------------------------
G|--7h8-8----5----10----8----7---
C|---------0----0----0----0------
. . . .

D|-------------------------------
A|-------------------------------
F|-------------------------------
C|-------------------------------
G|--7h8-8----5----10----8----7---
C|--------0----0-----0-----0-----
. . . .

D|-------------------------------
A|-------------------------------
F|-------------------------------
C|------7----5----8-----7--------
G|--7h8-----------------------8--
C|--------0----0-----0-----0-----
. . . .

D|-------------------------------
A|-------------------------------
F|-------------------------------
C|---5---7----5----8-----7-----5-
G|---------------------------8---
C|--------0----0-----0-----0-----
. . . .

When repeating, miss out the first 7 & 8

2nd time round, the last line changes to:

D|-------------------------------
A|-------------------------------
F|-------------------------------
C|---5---7----5----8~----7~------
G|--------------------------8--7-
C|--------0----0-----------------
. .


Pre Chorus (x2)

D|------------------------------------- \
A|------------------------------------- \
F|------------------------------------- \
C|------------------------------------- ] x2
G|-(7)-----7h8p5-----10---8~---7~------ /
C|-----000--------0-----0-------------- /
... . . /

D|------------------------------
A|------------------------------
F|------------------------------
C|------------------------------
G|-(7)-----7h8p5----7-----8~----
C|-----000--------0-----0-------
... . .

D|--------------------------
A|--------------------------
F|--------------------------
C|--------------------------
G|---10---8---7--8---7---5--
C|------0---0------0---0----
. . . .

Pre Pre Chorus (x1)

D|---------------- Guitar 1: C|--5--
A|---------------- G|--3--
F|---------------- C|-----
C|----------------
G|---7---8---7---- Guitar 2: C|--7--
C|-----0---0------ G|--5--
. . C|-----


Chorus (x4)

D|--------------------------------------------
A|------t=10----------------------------------
F|--------------------------------------------
C|--t-t-t--t-t-t--7-7-7--7-7-7--7-7-7--7-7-7-7
G|--8-8-8--8-8-8--5-5-5--5-5-5--0-0-0--0-0-0-0
C|--8-8-8--8-8-8--5-5-5--5-5-5--0-0-0--0-0-0-0

D|------------------------
A|------------------------
F|------------------------
C|--14-14-14-14-12-12-12--
G|--12-12-12-12-10-10-10--
C|--12-12-12-12-10-10-10--
Guitar Tab Creator is intended to store guitar tab created through the tool. It currently does not support in-line text editing. Any text you place in here will be lost. If you need to comment on your tab, please use the "Tab Notes" section located below.