Proper Tab!!

(/) Slide Up  (\) Slide Down  (h) Hammer On  (p) Pull Off  (b) Bend (r) Release (v) Vibrato


D|-------------------------------
A|-------------------------------
F|-------------------------------
C|-------------------------------
G|--7h8-8----5----10----8----7---
C|---------0----0----0----0------
. . . .

D|-------------------------------
A|-------------------------------
F|-------------------------------
C|-------------------------------
G|--7h8-8----5----10----8----7---
C|--------0----0-----0-----0-----
. . . .

D|-------------------------------
A|-------------------------------
F|-------------------------------
C|------7----5----8-----7----5---
G|--7h8--------------------------
C|--------0----0-----0-----0-----
. . . .

D|-------------------------------
A|-------------------------------
F|-------------------------------
C|------7----5----8-----7------5-
G|---8-----------------------8---
C|--------0----0-----0-----0-----
. . . .

When going back to the start (because this all gets repeated) play the first of the four lines like this instead:

D|-------------------------------
A|-------------------------------
F|-------------------------------
C|-------------------------------
G|------8----5----10----8----7---
C|---------0----0----0----0------
. . . .





Guitar Tab Creator is intended to store guitar tab created through the tool. It currently does not support in-line text editing. Any text you place in here will be lost. If you need to comment on your tab, please use the "Tab Notes" section located below.