The one

(/) Slide Up  (\) Slide Down  (h) Hammer On  (p) Pull Off  (b) Bend (r) Release (v) Vibrato

E|---------------------------------------------------------------------
B|---------------------------------------------------------------------
G|--------6--7p6-----------6--7p6-----------6--7p6-----9p6-----7p6-----
D|-----7----------7-----7----------7-----7----------7-------7-------7--
A|--9----------------9----------------7--------------------------------
E|---------------------------------------------------------------------



E|----------------------------------------------------------------------
B|----------------------------------------------------------------------
G|--------6--7p6-----------6--7p6-----------6--7p6-----------6--7p6-----
D|-----7----------7-----7----------7-----7----------7-----7----------7--
A|--5----------------5----------------5----------------7----------------
E|----------------------------------------------------------------------



E|--------------------------------------------------
B|--------------------------------------------------
G|--6--6--6--9--6--6--6--6--6--6--6--9--6--6--6--6--
D|--7--7--7--7--7--7--7--7--7--7--7--7--7--7--7--7--
A|--9--9--7--7--5--5--5--7--9--9--7--7--5--5--5--7--
E|--------------------------------------------------



E|-----------------------------------------------------------------------
B|-----------------------------------------------------------------------
G|-----------------------------------------------------------------------
D|-----7-----7h9-----9b10b9--7-----7---/9--7--------6h7p6----------------
A|--9-----9-------7-------------9-----5-------9--4---------7-----7--7/9--
E|------------------------------------------------------------9----------
http://www.guitartabcreator.com
Guitar Tab Creator is intended to store guitar tab created through the tool. It currently does not support in-line text editing. Any text you place in here will be lost. If you need to comment on your tab, please use the "Tab Notes" section located below.