untitled

(/) Slide Up  (\) Slide Down  (h) Hammer On  (p) Pull Off  (b) Bend (r) Release (v) Vibrato


E|--------------------------------------------------------------------------------------------------
B|--------------0--------------0--------------0-----------------0--------------0--------------0-----
G|--------7--------------7--------------7-----------------7--------------7--------------7-----------
D|-----5-----5--------5-----5--------5-----5-----5-----4-----4--------4-----4--------4-----4-----4--
A|--7--------------7--------------7-----------------7--------------7--------------7-----------------
E|--------------------------------------------------------------------------------------------------



E|--------------------------------------------------------------------------------------------------
B|--------------0--------------0--------------0-----------------0--------------0--------------0-----
G|--------7--------------7--------------7-----------------5--------------5--------------5-----------
D|-----4-----4--------4-----4--------4-----4-----4-----2-----2--------2-----2--------2-----2-----2--
A|--5--------------5--------------5-----------------3--------------3--------------3-----------------
E|--------------------------------------------------------------------------------------------------



E|-----------------------------------------------------------------------------------------------
B|--------------0--------------0--------------0-----------------0--------------0-----------------
G|--------7--------------7--------------7-----------------7--------------7--------------7--------
D|-----5-----5--------5-----5--------5-----5-----5-----4-----4--------4-----4--------4-----4-----
A|--7--------------7--------------7-----------------7--------------7--------------7--------------
E|-----------------------------------------------------------------------------------------------



E|-----------------------------------------------------------------------------------------------
B|--0-----------------0--------------0--------------0-----------------0--------------0-----------
G|--------------7--------------7--------------7-----------------5--------------5-----------------
D|-----4-----4-----4--------4-----4--------4-----4-----4-----2-----2--------2-----2--------2-----
A|--------5--------------5--------------5-----------------3--------------3--------------3--------
E|-----------------------------------------------------------------------------------------------



E|-----------------------------------------------------------------------------------------------
B|--------0-----------------3-----------------------5-----------------------7--------------------
G|--5-----------------0-----------0-----------0-----------0-----------0-----------0-----------0--
D|-----2-----2-----0-----0-----0-----0-----4-----4-----4-----4-----5-----5-----5-----5-----7-----
A|-----------------------------------------------------------------------------------------------
E|--------------3-----------------------5-----------------------7-----------------------8--------



E|--------------------------------------------------------------------------------------------
B|-----8------------------------12-----------------------10-----------------------8-----------
G|-----------0------------0------------0-----------0------------0-----------0-----------0-----
D|--7-----7-----7------9-----9------9-----9-----7-----7------7-----7-----5-----5-----5--------
A|-----------------10------------------------9------------------------7-----------------------
E|--------------------------------------------------------------------------------------------



E|--------------------------------------------------------------------------------------------
B|-----------------5-----------------------3-----------------------5-----------------------7--
G|-----------0-----------0-----------0-----------0-----------0-----------0-----------0--------
D|--5-----2-----2-----2-----2-----0-----0-----0-----0-----2-----2-----2-----2-----4-----4-----
A|-----3-----------------------2-----------------------3-----------------------5--------------
E|--------------------------------------------------------------------------------------------



E|-----------
B|-----------
G|-----0-----
D|--4-----4--
A|-----------
E|-----------
http://www.guitartabcreator.com
Guitar Tab Creator is intended to store guitar tab created through the tool. It currently does not support in-line text editing. Any text you place in here will be lost. If you need to comment on your tab, please use the "Tab Notes" section located below.