Pusong bato


PUSONG BATO(TABS)
BY
Arranged by: aljhon Radaza

Note: Dito sa tab may makikita kang mag kakatapat na number,
meaning sabay mong papatunugin.
dapat may capo kang ilalagay sa "3rd FRET"..


(/) Slide Up (\) Slide Down (h) Hammer On (p) Pull Off (b) Bend (r) Release (v) Vibrato

intro:

E|------------------------------------|-----------3-0------------------------------------
B|------0h1-------------------0-------|-----0h1--1--------0-----0------------------------
G|----------2-------------3h4---4-----|---------2-----3h4---3h4--------------------------
D|-------------3----0---0---------0---|--------------------------------------------------
A|----3-----------3---0-------------0-|---3----------------------------------------------
E|--1----------------0----------------|--1-----------------------------------------------


verse 1

E|---------------------------------|-----------------------------------------------------
B|-------o----1--------------------|--------------1-1------------------------------------
G|-------2---2--2-2-2--20----------|-------0---0----2----2-2-0--0h2-0--------------------
D|-2/3-3-3--3---2-----0---0-2h3-2--|-2-2-3-2-2------3--------0---------------------------
A|--------------3-----2-----3------|-------3--------3------------------------------------
E|--------------1-----3------------|----------------1-1-1----1---------------------------


E|------------------------------------------|----------------------------------------1----
B|---------------------1-1------------------|------------------1-1------------------------
G|---------------0---0---2-----2-2-0-0h2-0--|--------------0--0--2-----2-2-0-0h2-0--------
D|-0-0-----2-2-3-2-2-----3---------0--------|-0-0----2-2-3-2-2---3---------0--------------
A|---2h3-2-------3-------3------------------|---2h3-2------3-----3-----------------2-2----
E|---3---3---------------1-1-1-----1--------|---3---3------------1-1-1-----1---------3----

Pag tapos nito mag kambyo ka ng G bago chorus

Chorus:

E|-0-0-0-------------------------------------|--------------------------------------------
B|-1-1-1-3-3--1---1-1--1h3-1-3-3-3-1-1-0--0--|--------------------------------------------
G|------------0-2----2-------0-0-0-0-0-0-2---|-0h2-2-2---0h2-0----------------------------
D|-2-2-2--------3----------------------------|---------0-0---0----------------------------
A|-3-3-3------3-3----------------------------|-0------------------------------------------
E|--------------1------------1-1-1-----------|--------------------------------------------


E|-0-0-0---------0-1-1-1-1h3-1--3-3-3-1-1-0---0-1-----------------------------------------
B|-1-1-1-3-3-1-3---1-1-1------1-0-0-0-0-0-0-2---------------------------------------------
G|-----------------2----------------------------------------------------------------------
D|-2-2-2-----------3----------------------------2-----------------------------------------
A|-3-3-3-----------3----------------------------3-----------------------------------------
E|-----------------1------------1-1-1-----1-----------------------------------------------

VERSE 2


E|---------------------------------|------------------------------------------------------
B|-------o----1--------------------|--------------1-1-------------------------------------
G|-------2---2--2-2-2--20----------|-------0---0----2----2-2-0--0h2-0---------------------
D|-2/3-3-3--3---2-----0---0-2h3-2--|-2-2-3-2-2------3--------0----------------------------
A|--------------3-----2-----3------|-------3--------3-------------------------------------
E|--------------1-----3------------|----------------1-1-1----1----------------------------


E|------------------------------------------|----------------------------------------1----
B|---------------------1-1------------------|------------------1-1------------------------
G|---------------0---0---2-----2-2-0-0h2-0--|--------------0--0--2-----2-2-0-0h2-0--------
D|-0-0-----2-2-3-2-2-----3---------0--------|-0-0----2-2-3-2-2---3---------0--------------
A|---2h3-2-------3-------3------------------|---2h3-2------3-----3-----------------2-2----
E|---3---3---------------1-1-1-----1--------|---3---3------------1-1-1-----1---------3----

Pag tapos nito mag kambyo ka ng G bago chorus

Chorus:

E|-0-0-0-------------------------------------|--------------------------------------------
B|-1-1-1-3-3--1---1-1--1h3-1-3-3-3-1-1-0--0--|--------------------------------------------
G|------------0-2----2-------0-0-0-0-0-0-2---|-0h2-2-2---0h2-0----------------------------
D|-2-2-2--------3----------------------------|---------0-0---0----------------------------
A|-3-3-3------3-3----------------------------|-0------------------------------------------
E|--------------1------------1-1-1-----------|--------------------------------------------


E|-0-0-0---------0-1-1-1-1h3-1--3-3-3-1-1-0---0-1-----------------------------------------
B|-1-1-1-3-3-1-3---1-1-1------1-0-0-0-0-0-0-2---------------------------------------------
G|-----------------2----------------------------------------------------------------------
D|-2-2-2-----------3----------------------------2-----------------------------------------
A|-3-3-3-----------3----------------------------3-----------------------------------------
E|-----------------1------------1-1-1-----1-----------------------------------------------

Interlude: Do the strumming of C,F,G,C,G...
pwede mo tgnan yung video ko para makita mo yung strumming
tapos pag tapos neto mag C ka bago mo hilain yung capo..
kaw na bahala sa diskarte kung pano hihilain yung capo.^_^


E|----------------------------------------------------------------------------------------
B|-3--------->>>>>>>>>>------------3------------------------------------------------------
G|-0-----hilain mo na yung capo----0------------------------------------------------------
D|-----------from 3rd to 4th fret---------------------------------------------------------
A|----------------------------------------------------------------------------------------
E|-3-------------------------------3------------------------------------------------------

Pag succes yung pag transition mo repeat chorus lang ulit
tapos ending gawa ka nalang ending mo kasi sa video ko di ko
na kinopya yung saktong end ng original song.. sana makatulong to stay tuned.



al^_^
2-17-13





Guitar Tab Creator is intended to store guitar tab created through the tool. It currently does not support in-line text editing. Any text you place in here will be lost. If you need to comment on your tab, please use the "Tab Notes" section located below.