BUKO by Jireh Lim

                                            "BUKO"
Jireh Lim
(Guitar finger style)
Arrange and played by:
aLjhon Radaza




(/) Slide Up (\) Slide Down (h) Hammer On (p) Pull Off (b) Bend (r) Release (v) Vibrato

note:Ito po ay sariling gawa ko lamang kaya kung mapapansin nyu hindi ginaya yung ibang nota gaya sa orihinal na kanta ..sana makatulong :)visit lang kayo sa |FB page ko or panoorin nyu mga vid ko sa youtube |THANKS|||||||! stay tuned. |God bless


intro


E |-7-5-4-0h2----4-5-7-5-------------------|-7-5-4-0h2-----4-5-7-5--------------------0-------
G#|-0-----------0----5----9-5-5h7--7h9-7-5-|-0------------0----5---9-5-5h7--7h9-7-5-5--4------
B |-0----------0-----5---5-----------------|-0-----------0-----5--5----------------7----------
E |-0---------0------5------------0--------|-0----------0------5-----------0------------------
B |-0--------0-------5---------------------|-0---------0-------5------------------------------
E |-0----------------5---------------------|-0-----------------5------------------------------

verse 1

E |-------------------------------------------------------------------------------------------
G#|-------------------------0-----------------------------------------------------------------
B |-2/4-2-0----0-0-2h4----4-4-2-0-4-2-2-0-0-0----2-2------------------------------------------
E |-----------0---------0---------5------------4-4-4------------------------------------------
B |----------0---------0----------------------3-----------------------------------------------
E |---------0---------------------5--5--------------------------------------------------------



E |-------------------------------------------------------------------------------------------
G#|---------------0h2-0------2-----0----------------------------------------------------------
B |-2/4-2-0---0-0----------2-0-4-5-0-5-4-2-0-0----2-2-----------------------------------------
E |----------0--0---------0---------------------4---4-----------------------------------------
B |---------0-----------0----------------------3----------------------------------------------
E |--------0-----------------------5----------------------------------------------------------



refrain 1

E |-----------------------------|-------------------------------------------------------------
G#|-----------------------------|-------------------------------------------------------------
B |-0-4--2-2-r-0-0-----2-2--0---|-Repeat 3x---------------------------------------------------
E |------0-0-----0--4--4-4------|-------------------------------------------------------------
B |----------------3------------|-------------------------------------------------------------
E |-----5-----------------------|-------------------------------------------------------------


E |---------------------------0---------------------------------------------------------------
G#|------------------0--------0---------------------------------------------------------------
B |-0-4---2-0------2--------2-----------------------------------------------------------------
E |----------0---4-------4--------------------------------------------------------------------
B |------------3-------3----------------------------------------------------------------------
E |-----5-------------------------------------------------------------------------------------

chorus

E |----------------------------0--|-----------------------------------------------------------
G#|----------------------------0--|------0----------------------------------------------------
B |-4-5-5/7-5---4---0-0h2----2-2--|--4-0-0-5-4-0-0h2--4-2-0-----------------------------------
E |-----0---0---0----------0---0--|-----------------------4-----------------------------------
B |-----0-----------------0----0--|------------------3----------------------------------------
E |-----0-----0---0---------------|------5----------------------------------------------------


E |-------------------------------|-----------------------------------------------------------
G#|----------------------0--------|-----------------------------------------------------------
B |-4-2-0----0-2-0-2h4------2-2---|---repeat--3x----------------------------------------------
E |--------4--4-------------------|-----------------------------------------------------------
B |--------------------0----------|-----------------------------------------------------------
E |-------5-----------------------|-----------------------------------------------------------




E |-------------------------------------------------------------------------------------------
G#|-----------------0-------------------------------------------------------------------------
B |-0-4-2---------2-2--4/5-4-2-0--------------------------------------------------------------
E |-----0-0-----4-----------------------------------------------------------------------------
B |-----------3-------------------------------------------------------------------------------
E |-------------------------------------------------------------------------------------------

-repeat half intro(half only)

-verse 2(verse 1 tabs)

chorus

\E |----------------------------0--|-----------------------------------------------------------
G#|----------------------------0--|------0----------------------------------------------------
B |-4-5-5/7-5---4---0-0h2----2-2--|--4-0-0-5-4-0-0h2--4-2-0-----------------------------------
E |-----0---0---0----------0---0--|-----------------------4-----------------------------------
B |-----0-----------------0----0--|------------------3----------------------------------------
E |-----0-----0---0---------------|------5----------------------------------------------------


E |-------------------------------|-----------------------------------------------------------
G#|----------------------0--------|-----------------------------------------------------------
B |-4-2-0----0-2-0-2h4------2-2---|---repeat--3x----------------------------------------------
E |--------4--4-------------------|-----------------------------------------------------------
B |--------------------0----------|-----------------------------------------------------------
E |-------5-----------------------|-----------------------------------------------------------




E |-------------------------------------------------------------------------------------------
G#|-----------------0-------------------------------------------------------------------------
B |-0-4-2---------2-2-------------------------------------------------------------------------
E |-----0-0-----4-----------------------------------------------------------------------------
B |-----------3-------------------------------------------------------------------------------
E |-------------------------------------------------------------------------------------------


refrain 2

E |-------------------------------------------------------------------------------------------
G#|-----------------------0-----------0-------------------------------------------------------
B |-0-4--2-2-0-0h2----2-2---2-2---4-0--2-2--2-4-5-0-0-----------------------------------------
E |-----------------4-------------------------------0-----------------------------------------
B |----------------3-----------------------0--------------------------------------------------
E |-----5-----------------------5-------------------------------------------------------------


E |-----------------------------------------------------0--------------------------------------
G#|--------------0--0--------0--------------------------0--------------------------------------
B |---0-0h2----2-2---2-2--4-0-2-2---2-4-5-2-0-2---0---2-2--------------------------------------
E |----------4-----------------------------------4--4---4--------------------------------------
B |---------3---------------------0----------------3----3--------------------------------------
E |-5--------------------5----------------------5----------------------------------------------


-Repeat chorus
-Repeat Intro hanggang mag fade nalang kayo..


al:)
03/10/13
Guitar Tab Creator is intended to store guitar tab created through the tool. It currently does not support in-line text editing. Any text you place in here will be lost. If you need to comment on your tab, please use the "Tab Notes" section located below.