Untitled 19

(/) Slide Up  (\) Slide Down  (h) Hammer On  (p) Pull Off  (b) Bend (r) Release (v) Vibrato


E|--------------------
B|--------------------
G|--------------------
D|-----14--11\0-------
A|--0------------7\0--
E|--------------------



E|------------
B|------------
G|------------
D|-----11-----
A|--0------7--
E|------------



E|---------------------------------------------------
B|---------------------------------------------------
G|---------------------------------------------------
D|------------------------11--11---------------------
A|--0--0--0--0--0--11h12----------12p11--------------
E|---------------------------------------12--12--12--



E|-------------------------------------------------------------
B|-------------------------------------------------------------
G|-------------------------------------------------------------
D|-----------12/14\12p11h12p11------11--11---------------------
A|--0--0--0---------------------12----------12p11--------------
E|-------------------------------------------------12--12--12--



E|--------------------------------------------------
B|--------------------------------------------------
G|--------------------------------------------------
D|-----9--7--6-----9--7--6-----6--7--9-----7--6--4--
A|--0-----------0-----------7-----------4-----------
E|--------------------------------------------------



E|-------------------------------------------------------
B|-------------------------------------------------------
G|------9--11--------------------------------------------
D|--11---------------------------------------------------
A|-------------------------------------------------------
E|-------------9--9--7--9--9--9--7--7--4--7--4--4--2--4--
http://www.guitartabcreator.com
Guitar Tab Creator is intended to store guitar tab created through the tool. It currently does not support in-line text editing. Any text you place in here will be lost. If you need to comment on your tab, please use the "Tab Notes" section located below.