L.A.M.E

(/) Slide Up  (\) Slide Down  (h) Hammer On  (p) Pull Off  (b) Bend (r) Release (v) Vibrato


E|-------------------------------
B|-------------------------------
G|-------------------------------
D|--------4----------------8-----
A|--2--2-----4--4/6--6--6-----6--
E|-------------------------------



E|------------------------------------------
B|------------------------------------------
G|------------------------------------------
D|--------4-------------------------4-------
A|--2--2-----4--4/6--6--6--6--2--2-----4/6--
E|------------------------------------------



E|-----------------
B|-----------------
G|-----------------
D|--------4--------
A|--2--2-----4--6--
E|-----------------



E|-----------------------------------------------------------
B|-----------------------------------------------------------
G|-----------------------------------------------------------
D|-----------------------------------------------8--8--------
A|--------------------------9--6--6--8--8--9--9--------9--8--
E|--7--7--7--7--9--9--9--6-----------------------------------



E|--------------------------------------------------------
B|--------------------------------------------------------
G|--------------------------------------------------------
D|-------------------------------------------8------------
A|--------------------------9--6--6--6--8/9-----9--8------
E|--7--7--7--7--9--9--9--6--------------------------------
http://www.guitartabcreator.com
Guitar Tab Creator is intended to store guitar tab created through the tool. It currently does not support in-line text editing. Any text you place in here will be lost. If you need to comment on your tab, please use the "Tab Notes" section located below.