Damage Control - Chris Pureka

Damage Control - by Chris Pureka
Tabbed by: akravis

(/) Slide Up (\) Slide Down (h) Hammer On (p) Pull Off (b) Bend (r) Release (v) Vibrato
Drop D Tuning
Capo on top 5 strings on 2nd fret
<> harmonic

PRELUDE:

E|--------------------------------------------------------------------------------------------
B|--3--3/5--5--5\3--3--3--3--0--------0-----0------------------3--3/5--5--5/7--7--7/8--8--8/10
G|--0--0-0--0--0-0--0--0--0--0--------------------0-----0------0--0-0-------------------------
D|--3--3/5--5--5\3--3--3--2--0------0-----0-----0-----0-----0--3--3/5-------------------------
A|--------------------------------------------------------------------------------------------
D|--------------------------------7-----6-----4-----2----0------------------------------------


E|--------------------------------------------------------------------------------------------
B|--10-10-10-10\8-7----------0-----0------------------3--3/5--5--5\3--3--3--3--0--------------
G|--------------------------------------0-----0-------0--0-0--0--0-0--0--0--0--0--------------
D|------------------------0-----0-----0-----0---------3--3/5--5--5\3--3--3--2--0--------------
A|--------------------------------------------------------------------------------------------
D|----------------------7-----6-----4-----2----0----------------------------------------------


E|--------------------------------------------------------------------------------------------
B|--------0-----0------------------3--3/5(v)--5\3--3\1--0--------0----------0---------0-------
G|-------------------0-----0----------------------------------------0----------0---------0----
D|-----0-----0-----0-----0-----0----------------------------2--0---0------0---0-----0---0-----
A|----------------------------------------------------------2---------------------------------
D|---7-----6-----4-----2----0-------------------------------------------2---------0---------0-[ring]


E|-----------------------------------<>12-----------------------------------------------------
B|-------0---------0---------0-------<>12---------0---------0--------3/5--3------0------------
G|----------0---------0---------0----<>12------------0---------0-----0-0--0-----0---0---------
D|--2--0---0-----0---0-----0---0----------------0---0-----0---0------3/5--3--0h2--------------
A|--2-----------------------------------------------------------------------------------------
D|-------------2---------0-------------------4----------2---------0---------------------------


E|-----------------------------------------------------------*---------------------------------
B|-------0---------0--------3/5--5/7--7/8(v)---8--8---7--7---*----3/5--3------0----------------
G|----------0---------0-----0-0----------------0-0-0--0-0-0--*----0-0--0-----0---0-------------
D|-----0---0-----0---0------3/5----------------7------7------*----3/5--3--0h2------------------
A|-----------------------------------------------------------*---------------------------------
D|--4----------2---------0-----------------------------------*-0-------------------------------


E|-----------------------------------------------------<>12-----------------------------------
B|-------0---------0-------------<>12-----<>12-----<>12---------------------------------------
G|----------0---------0------<>12-----<>12-----<>12-------------------------------------------
D|-----0---0-----0---0------------------------------------------------------------------------
A|--------------------------------------------------------------------------------------------
D|---4---------2---------0--------------------------------------------------------------------


VERSE
[basically a Cmaj7 alternating picking on the 3/2]
E|---------------------------------------
B|-------0-------0--------0-------0------
G|-----0---0---0---0----0---0---0--0-----
D|---2----------------2------------------
A|------------3---------------3----------
D|---------------------------------------


CHORUS
Repeat 4X through Chorus
[start hard on the open D, '..done, where's the safety net now, where's they damage con..']
E|------------------------------------------
B|-------0---------0---------0---------0----
G|----------0---------0---------0---------0-
D|-----0---0-----0---0-----0---0-----0---0--
A|------------------------------------------
D|---0---------2---------4---------4--------


end just before 'turned..' then repeat after asterisk line in prelude tabs above before returning to chorus
http://www.guitartabcreator.com
Guitar Tab Creator is intended to store guitar tab created through the tool. It currently does not support in-line text editing. Any text you place in here will be lost. If you need to comment on your tab, please use the "Tab Notes" section located below.