moby dick

(/) Slide Up  (\) Slide Down  (h) Hammer On  (p) Pull Off  (b) Bend (r) Release (v) Vibrato


E|-----------------------------------------------------------------
B|-----------------------------------------------------------------
G|-----------------------------------------------------------------
D|-----------------------------------------------------------------
A|-----------7-----7-----5-----------------------------------------
E|-----0-----------------------7-----3-----5-----3-----5-----3-----



E|-----------------------------------------------------------------
B|-----------------------------------------------------------------
G|-----------------------------------------------------------------
D|-----------7-----7-----5-----------------------------------------
A|-----0-----------------------7-----3-----5-----3-----5-----3-----
E|-----------------------------------------------------------------



E|-----------------------------------------------------------------------------------
B|-----------------------------------------------------------------------------------
G|-----------------------------------------------------------------------------------
D|-----------------------------------------------------------------------------------
A|-------7---7---5-------------------------------7---7---5---------------------------
E|---0---------------7---3---5---3---5---3---0---------------7---3---5---3---5---3---



E|-----------------------------------------------------------------------
B|-----------------------------------------------------------------------
G|-----------------------------------------------------------------------
D|-------9---9---7-------9---9-------7---9---7---7---7---7---7---5-------
A|-------------------9-----------9-----------------------------------7---
E|---7-------------------------------------------------------------------



E|-----------------------
B|-----------------------
G|---9---7---------------
D|-----------9---7---5---
A|-----------------------
E|-----------------------
http://www.guitartabcreator.com
Guitar Tab Creator is intended to store guitar tab created through the tool. It currently does not support in-line text editing. Any text you place in here will be lost. If you need to comment on your tab, please use the "Tab Notes" section located below.