Under Construction

(/) Slide Up  (\) Slide Down  (h) Hammer On  (p) Pull Off  (b) Bend (r) Release (v) Vibrato


E|--------5\2--2--
B|-----0----------
G|--2-------------
D|----------------
A|----------------
E|----------------



E|--2/5--7--8--7--5--3--3\2/3--
B|-----------------------------
G|-----------------------------
D|-----------------------------
A|-----------------------------
E|-----------------------------



E|--0--2--3h5p3--
B|---------------
G|---------------
D|---------------
A|---------------
E|---------------



E|--0h2/3--5--6--5--3--5p3--2--
B|-----------------------------
G|-----------------------------
D|-----------------------------
A|-----------------------------
E|-----------------------------



E|--2/3\2p0-----------------------
B|-----------3--2/3\2p0-----0-----
G|-----------------------2-----2--
D|--------------------------------
A|--------------------------------
E|--------------------------------
http://www.guitartabcreator.com
Guitar Tab Creator is intended to store guitar tab created through the tool. It currently does not support in-line text editing. Any text you place in here will be lost. If you need to comment on your tab, please use the "Tab Notes" section located below.