Skyrim Parts

(/) Slide Up  (\) Slide Down  (h) Hammer On  (p) Pull Off  (b) Bend (r) Release (v) Vibrato
E|--------------------0------
B|-3-2-3---3-2-3--3-2---3-2-0
G|---------------------------
D|---------------------------
A|---------------------------
E|---------------------------



E|----------------------------
B|--------------------2-3-----
G|-4-2-4---4-2-4--4-2-----2-4-
D|----------------------------
A|----------------------------
E|----------------------------



E|-----------0-2---2-5-0-------
B|-0-2-3---3-------------3-2-0-
G|-----------------------------
D|-----------------------------
A|-----------------------------
E|-----------------------------



E|----------------------------
B|--------------------2-3-----
G|-4-2-4---4-2-4--4-2-----2-4-
D|----------------------------
A|----------------------------
E|----------------------------



E|-----------0-2---2-5-0-------
B|-0-2-3---3-------------3-2-0-
G|-----------------------------
D|-----------------------------
A|-----------------------------
E|-----------------------------



E|-----------0-2---2-5-7---5-9-7-
B|-0-2-3---3---------------------
G|-------------------------------
D|-------------------------------
A|-------------------------------
E|-------------------------------



E|-7-9-10-9-7--------0------2-0-
B|------------10-8-7------3-----
G|------------------------------
D|------------------------------
A|------------------------------
E|------------------------------



E|--------------------0-------
B|-3-2-3---3-2-3--3-2---3-2-0-
G|----------------------------
D|----------------------------
A|----------------------------
E|----------------------------



E|----------------------------
B|--------------------2-3-----
G|-4-2-4---4-2-4--4-2-----2-4-
D|----------------------------
A|----------------------------
E|----------------------------



E|-----------0-2---2-5-0-------
B|-0-2-3---3-------------3-2-0-
G|-----------------------------
D|-----------------------------
A|-----------------------------
E|-----------------------------



E|--------------------------------------------
B|--------------------------------2--3--------
G|--4--2--4------4--2--4----4--2--------2--4--
D|--------------------------------------------
A|--------------------------------------------
E|--------------------------------------------
http://www.guitartabcreator.com
Guitar Tab Creator is intended to store guitar tab created through the tool. It currently does not support in-line text editing. Any text you place in here will be lost. If you need to comment on your tab, please use the "Tab Notes" section located below.