Lava Reef

(/) Slide Up  (\) Slide Down  (h) Hammer On  (p) Pull Off  (b) Bend (r) Release (v) Vibrato


E|-----------------------------
B|-----1-----0-----------------
G|--2-----2-----0--2--0--------
D|-----------------------3--2--
A|-----------------------------
E|-----------------------------



E|-----------------------------
B|-----1-----0-----0-----------
G|--2-----2-----0-----0-----0--
D|-----------------------0-----
A|-----------------------------
E|-----------------------------



E|-----------------------------
B|-----1-----0-----------------
G|--2-----2-----0--2--0--------
D|-----------------------3--2--
A|-----------------------------
E|-----------------------------



E|-----------------------------
B|-----1-----0-----0-----------
G|--2-----2-----0-----0-----0--
D|-----------------------0-----
A|-----------------------------
E|-----------------------------



E|--
B|--
G|--
D|--
A|--
E|--



E|-------3-----0--------0--
B|--3/5-----1--------1-----
G|----------------2--------
D|-------------------------
A|-------------------------
E|-------------------------



E|-------3-----0----------
B|--3/5-----1-----3p1-----
G|---------------------2--
D|------------------------
A|------------------------
E|------------------------



E|-------3-----0--------0--
B|--3/5-----1--------1-----
G|----------------2--------
D|-------------------------
A|-------------------------
E|-------------------------



E|-------3-----0----------
B|--3/5-----1-----3p1-----
G|---------------------2--
D|------------------------
A|------------------------
E|------------------------



E|--0h1--3-----3--3--5--3--
B|----------1--------------
G|-------------------------
D|-------------------------
A|-------------------------
E|-------------------------



E|--5--3--5--8--7--5--7--8--10--8--7--
B|------------------------------------
G|------------------------------------
D|------------------------------------
A|------------------------------------
E|------------------------------------



E|--12--10--12------8--7--7--10--7/8--
B|--------------10--------------------
G|------------------------------------
D|------------------------------------
A|------------------------------------
E|------------------------------------



E|--12--10--12------8--7--7--10--7/8--
B|--------------10--------------------
G|------------------------------------
D|------------------------------------
A|------------------------------------
E|------------------------------------
http://www.guitartabcreator.com
Guitar Tab Creator is intended to store guitar tab created through the tool. It currently does not support in-line text editing. Any text you place in here will be lost. If you need to comment on your tab, please use the "Tab Notes" section located below.