Feel Good Inc. Solo

(/) Slide Up  (\) Slide Down  (h) Hammer On  (p) Pull Off  (b) Bend (r) Release (v) Vibrato


E|--11--11--11--9--11--9--9--9--9--7--9--7--
B|------------------------------------------
G|------------------------------------------
D|------------------------------------------
A|------------------------------------------
E|------------------------------------------



E|--------------------4--6--
B|--7--7--7--7--7--6--------
G|--------------------------
D|--------------------------
A|--------------------------
E|--------------------------



E|--6-----------7--7--7--6--6--4--2--2--2--2--4--6--
B|-----4--6--7--------------------------------------
G|--------------------------------------------------
D|--------------------------------------------------
A|--------------------------------------------------
E|--------------------------------------------------



E|--11--14--11--11--14--11--18--18--18--16--14--11--
B|--------------------------------------------------
G|--------------------------------------------------
D|--------------------------------------------------
A|--------------------------------------------------
E|--------------------------------------------------



E|--11\1--1--2--2--4--4--6--6--8--8--10--10--11--11--12--12--13--14--11--
B|-----------------------------------------------------------------------
G|-----------------------------------------------------------------------
D|-----------------------------------------------------------------------
A|-----------------------------------------------------------------------
E|-----------------------------------------------------------------------
http://www.guitartabcreator.com
Guitar Tab Creator is intended to store guitar tab created through the tool. It currently does not support in-line text editing. Any text you place in here will be lost. If you need to comment on your tab, please use the "Tab Notes" section located below.