Elec Man

(/) Slide Up  (\) Slide Down  (h) Hammer On  (p) Pull Off  (b) Bend (r) Release (v) Vibrato

E|--------0-----------0--------
B|--4--2-----4--4--2-----4-----
G|-----------------------------
D|-----------------------------
A|-----------------------------
E|-----------------------------



E|--------0--------------------------
B|--4--2-----4--2--0--0-----------7--
G|-----------------------3-----------
D|--------------------------6--4-----
A|-----------------------------------
E|-----------------------------------



E|--------0-----------0-----
B|--4--2-----4--4--2-----4--
G|--------------------------
D|--------------------------
A|--------------------------
E|--------------------------



E|--------0--------------2--
B|--4--2-----4--2--0--------
G|--------------------------
D|--------------------4-----
A|--------------------------
E|--------------------------



E|-------7--5--4--5--4--2--0--2--
B|--4/7--------------------------
G|-------------------------------
D|-------------------------------
A|-------------------------------
E|-------------------------------



E|-----------7--5--
B|--4--5--7--------
G|-----------------
D|-----------------
A|-----------------
E|-----------------



E|--7/10--14--12----------------------14--14--14--14--14--14--14--14--
B|----------------13--11--12--13--14----------------------------------
G|--------------------------------------------------------------------
D|--------------------------------------------------------------------
A|--------------------------------------------------------------------
E|--------------------------------------------------------------------
http://www.guitartabcreator.com
Guitar Tab Creator is intended to store guitar tab created through the tool. It currently does not support in-line text editing. Any text you place in here will be lost. If you need to comment on your tab, please use the "Tab Notes" section located below.