Data Select

(/) Slide Up  (\) Slide Down  (h) Hammer On  (p) Pull Off  (b) Bend (r) Release (v) Vibrato
E|--6--6--6--5--6--5--3--
B|-----------------------
G|-----------------------
D|-----------------------
A|-----------------------
E|-----------------------



E|--5--6--8--5--3--3--5p3--1--
B|----------------------------
G|----------------------------
D|----------------------------
A|----------------------------
E|----------------------------



E|-------1--3-----1-----6--5--3--5--3h5p3--1--
B|--3h4--------3-----4------------------------
G|--------------------------------------------
D|--------------------------------------------
A|--------------------------------------------
E|--------------------------------------------



E|--6--6--6--5--6--5--3--
B|-----------------------
G|-----------------------
D|-----------------------
A|-----------------------
E|-----------------------



E|--5--6--8--5--3--3--5p3--
B|-------------------------
G|-------------------------
D|-------------------------
A|-------------------------
E|-------------------------



E|--6--7--8--9--10--11--3--6--5--3--5--6--6--6--6--6--6--
B|-------------------------------------------------------
G|-------------------------------------------------------
D|-------------------------------------------------------
A|-------------------------------------------------------
E|-------------------------------------------------------



E|----------------
B|--2/4-----4--3--
G|-------4--------
D|----------------
A|----------------
E|----------------



E|-------3--------
B|--1/3-----3--1--
G|----------------
D|----------------
A|----------------
E|----------------



E|--------------------------------
B|--2/4-----4--3--6--3--1h3p1-----
G|-------4---------------------3--
D|--------------------------------
A|--------------------------------
E|--------------------------------



E|----------------
B|--4/6-----6--5--
G|-------6--------
D|----------------
A|----------------
E|----------------



E|-------5--------
B|--3/5-----5--3--
G|----------------
D|----------------
A|----------------
E|----------------



E|-------------------------------
B|-------3-----------------------
G|--3/5-----3--5--2--3--0--2-----
D|----------------------------3--
A|-------------------------------
E|-------------------------------



E|--6--6--6--5--6--5--3--
B|-----------------------
G|-----------------------
D|-----------------------
A|-----------------------
E|-----------------------



E|--5--6--8--5--3--3--5p3--
B|-------------------------
G|-------------------------
D|-------------------------
A|-------------------------
E|-------------------------



E|--6--7--8--9--10--11--3--6--5--3--5--6--6--6--6--6--6--
B|-------------------------------------------------------
G|-------------------------------------------------------
D|-------------------------------------------------------
A|-------------------------------------------------------
E|-------------------------------------------------------



E|--7/10--9--10--9--10--8--
B|-------------------------
G|-------------------------
D|-------------------------
A|-------------------------
E|-------------------------



E|--5/8--7--8--7--8--6--
B|----------------------
G|----------------------
D|----------------------
A|----------------------
E|----------------------



E|--7/10--9--10--9--10--9--10--8--
B|--------------------------------
G|--------------------------------
D|--------------------------------
A|--------------------------------
E|--------------------------------



E|----------------------------
B|--11--10--8--6--3--1--------
G|----------------------0--0--
D|----------------------------
A|----------------------------
E|----------------------------



E|--7/10--9--10--9--10--8--
B|-------------------------
G|-------------------------
D|-------------------------
A|-------------------------
E|-------------------------



E|--5/8--7--8--7--8--7--8--6--
B|----------------------------
G|----------------------------
D|----------------------------
A|----------------------------
E|----------------------------



E|--7/10--9--10--9--10--8--
B|-------------------------
G|-------------------------
D|-------------------------
A|-------------------------
E|-------------------------



E|-------------------------
B|--11--10--8--6--3--1-----
G|----------------------0--
D|-------------------------
A|-------------------------
E|-------------------------



E|--6--6--6--5--6--5--3--
B|-----------------------
G|-----------------------
D|-----------------------
A|-----------------------
E|-----------------------



E|--5--6--8--5--3--5p3--1--
B|-------------------------
G|-------------------------
D|-------------------------
A|-------------------------
E|-------------------------



E|--6--7--8--9--10--11--3--6--5--3--5--6--6--6--6--6--6--
B|-------------------------------------------------------
G|-------------------------------------------------------
D|-------------------------------------------------------
A|-------------------------------------------------------
E|-------------------------------------------------------
http://www.guitartabcreator.com
Guitar Tab Creator is intended to store guitar tab created through the tool. It currently does not support in-line text editing. Any text you place in here will be lost. If you need to comment on your tab, please use the "Tab Notes" section located below.