Airman

(/) Slide Up  (\) Slide Down  (h) Hammer On  (p) Pull Off  (b) Bend (r) Release (v) Vibrato


E|------------------------------------------------------------
B|--6--9--8--7--6--9--8--7--6--6------------------------------
G|--------------------------------8--6--5--6--8---------------
D|-----------------------------------------------6--8--10--8--
A|------------------------------------------------------------
E|------------------------------------------------------------



E|---------------------------------------------------------
B|--9--8--7--6--9--8--7--6--6------------------------------
G|-----------------------------8--6--5--6--8---------------
D|--------------------------------------------6--8--10--8--
A|---------------------------------------------------------
E|---------------------------------------------------------



E|-------------------------------------------------
B|--------------------------9--9--9--9--9--10--11--
G|-------------------------------------------------
D|--8--10--8--11--8--13--8-------------------------
A|-------------------------------------------------
E|-------------------------------------------------



E|-----------------------------------------------9--13--11--16--14--13--11--
B|--14--13--11--11--11--9--11--9--11--11--9--11-----------------------------
G|--------------------------------------------------------------------------
D|--------------------------------------------------------------------------
A|--------------------------------------------------------------------------
E|--------------------------------------------------------------------------



E|-----------------------------------------------9--13--11--11--13--
B|--14--13--11--11--11--9--11--9--11--11--9--11---------------------
G|------------------------------------------------------------------
D|------------------------------------------------------------------
A|------------------------------------------------------------------
E|------------------------------------------------------------------
http://www.guitartabcreator.com
Guitar Tab Creator is intended to store guitar tab created through the tool. It currently does not support in-line text editing. Any text you place in here will be lost. If you need to comment on your tab, please use the "Tab Notes" section located below.