My Girl

(/) Slide Up  (\) Slide Down  (h) Hammer On  (p) Pull Off  (b) Bend (r) Release (v) Vibrato
E|-------------------------------------------------------------------------------------------------
B|-------------------------------------------------------------------------------------------------
G|-------------------5-------------------5--7/9/7/9--5v--5--7--5v-------------5--7/9--5--5/2/5-----
D|-------------5--7----------------5--7----------------------------7--5/7/5v-----------------------
A|--3--3--5/7-----------3--3--5/7------------------------------------------------------------------
E|-------------------------------------------------------------------------------------------------



E|--------------------------------------------------------------------------------------------------
B|--------------------------------------------------------------------------------------------------
G|--7v--5-----5---------7b9----------5v--7v------------7b9p5-----5--7--5-----------5--7p5-----5-----
D|---------7-----5/7/5-------5v--7v----------5--5v--7---------7-----------5--5--7----------7--------
A|--------------------------------------------------------------------------------------------------
E|--------------------------------------------------------------------------------------------------



E|----------------------------------------------------------------------------------------------------
B|------------5--8b10--5------------------------------------------------------------------------------
G|--7/9/7--7--------------7b9p5v-----7v--5-----5------------5--7--7b9--7--5v-----5--7--5v-------------
D|--------------------------------7---------7-----7--5v--7--------------------7------------7--5/7/5v--
A|----------------------------------------------------------------------------------------------------
E|----------------------------------------------------------------------------------------------------



E|---------------------------------------------------------------------
B|--8b10--5--8b10--5------------------8--10--8v--5-------8--10--8--8v--
G|--------------------7p5-----5--7/9----------------7/9----------------
D|-------------------------7-------------------------------------------
A|---------------------------------------------------------------------
E|---------------------------------------------------------------------
http://www.guitartabcreator.com
Guitar Tab Creator is intended to store guitar tab created through the tool. It currently does not support in-line text editing. Any text you place in here will be lost. If you need to comment on your tab, please use the "Tab Notes" section located below.