Soulshine

(/) Slide Up  (\) Slide Down  (h) Hammer On  (p) Pull Off  (b) Bend (r) Release (v) Vibrato
E|------------------------|----------------------|-------------------------------------|--
B|------------------------|-------6--------------|-------------------------------------|--
G|-----3--3-----5b7--5b7--|--7r5-----5b7--5--5v--|-----3v--3--5--5b7--3--3----------3--|--
D|--5--------5------------|----------------------|--5-----------------------5----------|--
A|------------------------|----------------------|-----------------------------4h5-----|--
E|------------------------|----------------------|-------------------------------------|--



E|-----------------------------------|---------13------------------|-------------------------13b16--13--11----------
B|---------11--11------13b15--13b15--|--13b15------13b15--13--13v--|--------11--11v--11---------------------14--11--
G|--11/12----------12----------------|-----------------------------|--9/12---------------12-------------------------
D|-----------------------------------|-----------------------------|------------------------------------------------
A|-----------------------------------|-----------------------------|------------------------------------------------
E|-----------------------------------|-----------------------------|------------------------------------------------
http://www.guitartabcreator.com
Guitar Tab Creator is intended to store guitar tab created through the tool. It currently does not support in-line text editing. Any text you place in here will be lost. If you need to comment on your tab, please use the "Tab Notes" section located below.