I could have lied (solo)

(/) Slide Up  (\) Slide Down  (h) Hammer On  (p) Pull Off  (b) Bend (r) Release (v) Vibrato


E|--------------------------------------------------------------------------------------
B|--------------------------------------------7--7--7--7--5--7--7--5--7--8b10--8--7-----
G|----------------2--4b6--6b4v-----------6/7-----------------------------------------7--
D|-----------2/4----------------5--5--7-------------------------------------------------
A|-------5v-----------------------------------------------------------------------------
E|--5/7---------------------------------------------------------------------------------



E|-----------------------------------------------7------------7--------------------
B|-----------------------7--------7--------7--7-----7--10b12-----10--7--10--10--7--
G|--7--9--7--9--7--9b11-----9b11-----9b11------------------------------------------
D|---------------------------------------------------------------------------------
A|---------------------------------------------------------------------------------
E|---------------------------------------------------------------------------------



E|----------------------------------------------------------------------------
B|--7h8p7-----7--------------------------8--7--7h8p7-----------------7--------
G|---------9-----7b6----------------------------------7-----------7-----7-----
D|--------------------9--7--9------9--9------------------9-----------------9--
A|----------------------------------------------------------------------------
E|----------------------------------------------------------------------------



E|-------------------------------------------------10--12b14--
B|-----------------------------------------10--12-------------
G|--------------------------------7--9/11---------------------
D|--9--7--9-----------------7--9------------------------------
A|---------------7/9--10--------------------------------------
E|------------------------------------------------------------



E|--15b17--14----------------------------------------------------------
B|-------------15------------------------------------------------------
G|-----------------14----------------7--9--7--7b9--7b9-----------------
D|---------------------14\12v---------------------------------9--7v----
A|---------------------------------------------------------------------
E|---------------------------------------------------------------------



E|----------
B|----------
G|----------
D|--7h9\5v--
A|----------
E|----------
http://www.guitartabcreator.com
Guitar Tab Creator is intended to store guitar tab created through the tool. It currently does not support in-line text editing. Any text you place in here will be lost. If you need to comment on your tab, please use the "Tab Notes" section located below.