Tim Two Step

(/) Slide Up  (\) Slide Down  (h) Hammer On  (p) Pull Off  (b) Bend (r) Release (v) Vibrato
E|-------------------------------|--------------|----------12----------10----|-
B|-10-10-10--11-11--8-8-8--10-10-|------------8-|-10-10-10----11---8-8----10-|-
G|-------------------------------|--10-10-10----|----------------------------|-
D|-------------------------------|--------------|----------------------------|-
A|-------------------------------|--------------|----------------------------|-
E|-------------------------------|--------------|----------------------------|-



E|-------8---------------|-------13-12-10-8-----------------------------------------10-|-
B|---------8-------11----|-10-11------------11-10-8---------------------------11-13----|-
G|-10-10-------9-9----10-|--------------------------10-9-----------------9-12----------|-
D|-----------------------|-------------------------------12-10-8----8-12---------------|-
A|-----------------------|---------------------------------------12--------------------|-
E|-----------------------|-------------------------------------------------------------|-



E|-10-8-----------10-8-----------10-8--------------13-10-------------10--------------
B|------10-8----8------10-8----8------10-8-8/10-13-------13-10----10----13-10-8----8-
G|-----------10-------------10---------------------------------12---------------10---
D|-----------------------------------------------------------------------------------
A|-----------------------------------------------------------------------------------
E|-----------------------------------------------------------------------------------



E|-8--------------10----------------13-10-------------15-13-------------13-10-------------
B|---10-8----8-10----13-10----10-13-------13-10/13-15-------15-13-10-13-------13-10----10-
G|--------10---------------12-------------------------------------------------------12----
D|----------------------------------------------------------------------------------------
A|----------------------------------------------------------------------------------------
E|----------------------------------------------------------------------------------------



E|-10----------------13-10-------------15-13-------------13-10-------------10---------------
B|----13-10----10-13-------13-10/13-15-------15-13-10-13-------13-10----10----13-10-------8-
G|----------12-------------------------------------------------------12-------------12-10---
D|------------------------------------------------------------------------------------------
A|------------------------------------------------------------------------------------------
E|------------------------------------------------------------------------------------------



E|-8------------------------------------------------------------------------------------------
B|---10-8-------11-10-----------10-8----------10-8-------8-11-10------------13-11----------11-
G|--------9-7-9-------10-9----9------9-7----7------9-7-9---------10-9-10-12-------12-10-12----
D|-------------------------12------------10---------------------------------------------------
A|--------------------------------------------------------------------------------------------
E|--------------------------------------------------------------------------------------------



E|-10----------------13-10-------------15-13-------------13-10-------------10----------------
B|----13-10----10-13-------13-10-13-15-------15-13-10-13-------13-10----10----13-10----10-13-
G|----------12-------------------------------------------------------12-------------12-------
D|-------------------------------------------------------------------------------------------
A|-------------------------------------------------------------------------------------------
E|-------------------------------------------------------------------------------------------



E|-13-10-------------15-13----------13-15-15-15-15-15-17-17-17-17-17-17-17-17-
B|-------13-10-13-15-------15-13-15-------------------------------------------
G|----------------------------------------------------------------------------
D|----------------------------------------------------------------------------
A|----------------------------------------------------------------------------
E|----------------------------------------------------------------------------



E|-17-17-17-17-15-15-13-13-15-15-12-12-13-12-10-12-13-12-10-12-13-12-10-12-13-12-10-12-13-13-13-
B|----------------------------------------------------------------------------------------------
G|----------------------------------------------------------------------------------------------
D|----------------------------------------------------------------------------------------------
A|----------------------------------------------------------------------------------------------
E|----------------------------------------------------------------------------------------------



E|-20-20-20-20-20-20-20-20-20-20-20-20-
B|-------------------------------------
G|-------------------------------------
D|-------------------------------------
A|-------------------------------------
E|-------------------------------------
http://www.guitartabcreator.com
Guitar Tab Creator is intended to store guitar tab created through the tool. It currently does not support in-line text editing. Any text you place in here will be lost. If you need to comment on your tab, please use the "Tab Notes" section located below.