Alternate Picking 5

(/) Slide Up  (\) Slide Down  (h) Hammer On  (p) Pull Off  (b) Bend (r) Release (v) Vibrato


E|----------------7-------8-------10-|-8-7----7-8----7-------------------|-
B|-8-7-8-10-8-7-8---8-7-8---8-7-8----|-----10-----10---8-10-7-8-10-8-7-8-|-
G|-----------------------------------|-----------------------------------|-
D|-----------------------------------|-----------------------------------|-
A|-----------------------------------|-----------------------------------|-
E|-----------------------------------|-----------------------------------|-



E|---------------3-------5-------7-|-5-3---3-5---3-----------------|-
B|-5-4-5-7-5-4-5---5-4-5---5-4-5---|-----7-----7---5-7-4-5-7-5-4-5-|-
G|---------------------------------|-------------------------------|-
D|---------------------------------|-------------------------------|-
A|---------------------------------|-------------------------------|-
E|---------------------------------|-------------------------------|-
http://www.guitartabcreator.com
Guitar Tab Creator is intended to store guitar tab created through the tool. It currently does not support in-line text editing. Any text you place in here will be lost. If you need to comment on your tab, please use the "Tab Notes" section located below.