Alternate Picking 4

(/) Slide Up  (\) Slide Down  (h) Hammer On  (p) Pull Off  (b) Bend (r) Release (v) Vibrato

E|----------------------------------------|----------------------------------------|--
B|----------------------------------------|----------------------------------------|--
G|----------------------------------------|----------------------------------------|--
D|----------------------------------------|------------------------------7--9--10--|--
A|-----------5--7--8--10--8--7------------|-----------5--7--8--7--8--10------------|--
E|--5--7--8---------------------10--8--7--|--5--7--8-------------------------------|--



E|--------------------------------------------|---------------------------------------------|--
B|--------------------------------------------|---------------------------------10--12--13--|--
G|------------7--9--10--12--10--9-------------|------------7--9--10--9--10--12--------------|--
D|--7--9--10-----------------------12--10--9--|--7--9--10-----------------------------------|--
A|--------------------------------------------|---------------------------------------------|--
E|--------------------------------------------|---------------------------------------------|--



E|--------------10--12--13--15--13--12------------------|--
B|--10--12--13--------------------------15--13--12--10--|--
G|------------------------------------------------------|--
D|------------------------------------------------------|--
A|------------------------------------------------------|--
E|------------------------------------------------------|--
http://www.guitartabcreator.com
Guitar Tab Creator is intended to store guitar tab created through the tool. It currently does not support in-line text editing. Any text you place in here will be lost. If you need to comment on your tab, please use the "Tab Notes" section located below.