Alternate Picking 3

(/) Slide Up  (\) Slide Down  (h) Hammer On  (p) Pull Off  (b) Bend (r) Release (v) Vibrato


E|---------------------------------|---------------------------------|-
B|---------------------------------|---------------------------------|-
G|---------------------------------|---------8-10-12---------8-10-12-|-
D|-----------------8-10-12---------|-8-10-12---------8-10-12---------|-
A|---------8-10-11---------8-10-11-|---------------------------------|-
E|-8-10-11-------------------------|---------------------------------|-



E|-------------------------10-11-13-|-15-|-13-11-10-------------------------|-
B|-9-11-13---------9-11-13----------|----|----------13-11-9---------13-11-9-|-
G|---------8-10-12------------------|----|------------------12-10-8---------|-
D|----------------------------------|----|----------------------------------|-
A|----------------------------------|----|----------------------------------|-
E|----------------------------------|----|----------------------------------|-



E|---------------------------------|---------------------------------|---|-
B|---------------------------------|---------------------------------|---|-
G|-12-10-8---------12-10-8---------|---------------------------------|---|-
D|---------12-10-8---------12-10-8-|---------12-10-8-----------------|---|-
A|---------------------------------|-11-10-8---------11-10-8---------|---|-
E|---------------------------------|-------------------------11-10-8-|-6-|-
http://www.guitartabcreator.com
Guitar Tab Creator is intended to store guitar tab created through the tool. It currently does not support in-line text editing. Any text you place in here will be lost. If you need to comment on your tab, please use the "Tab Notes" section located below.