You Promised Me Angels

(/) Slide Up  (\) Slide Down  (h) Hammer On  (p) Pull Off  (b) Bend (r) Release (v) Vibrato
E|----------
B|----------
G|----------
D|----------
A|--1----3--
E|----------



E|--------------------------------------------------------------------------------------------------
B|--------------------------------------------------------------------------------------------------
G|--------------------------------------------------------------------------------------------------
D|--------------------------------------------------------------------------------------------------
A|-----------------5--8-----------------------------------------------5--8--------------------------
E|--0--0--0--0--0--------0--0--0--0--0--0--0--0--0--0--0--0--0--0--0--------0--0--7--8--0--0--5--3--



E|-----------------------------------------------------------------------------------------------
B|-----------------------------------------------------------------------------------------------
G|-----------------------------------------------------------------------------------------------
D|-----------------------------------------------------------------------------------------------
A|-----------------3--------------------------------------------------------3--------------------
E|--2--2--2--2--2-----2--2--2--2--2--2--2--2--2--2--2--2--2--2--2--2--2--2-----2--2--2--2--2-----



E|--------------------------------------------------------------------------------------------
B|--------------------------------------------------------------------------------------------
G|--------------------------------------------------------------------------------------------
D|--------------------------------------------------------------------------------------------
A|--------------------------------------------------------1-----------------------------------
E|--2--2--2--2--2--2--2--2--2--2--2--2--2--0--0--0--0--0-----0--0--0--0--0--0--0--0--0--0--0--



E|--------------------------------------------------------------
B|--------------------------------------------------------------
G|--------------------------------------------------------------
D|--------------------------------------------------------------
A|-----------------1--------------------------------------------
E|--0--0--0--0--0-----0--0--0--0--0--0--0--0--0--0--0--0--0--0--



E|--------------------------------------------------------------------------
B|--------------------------------------------------------------------------
G|--------------------------------------------------------------------------
D|--------------------------------------------------------------------------
A|--------------------------------------------------------------------------
E|--0--0--0--0--0--0--0--0--0--0--0--0--3--3--3--3--3--8--8--8--8--8--8--8--



E|-----------------------------------------------------------------------------------------
B|-----------------------------------------------------------------------------------------
G|-----------------------------------------------------------------------------------------
D|-----------------------------------------------------------------------------------------
A|-----------------------------------------------------------------------------------------
E|--1--0--0--0--0--0--3--0--1--0--0--0--0--0--0--0--1--0--0--0--0--0--3--0--1--0--0--0-----



E|----------
B|----------
G|----------
D|----------
A|----------
E|--6----5--



E|--------------------
B|--------------------
G|--------------------
D|--------------------
A|--------------------
E|--6--5--3--5--3--2--



E|-----------------------------------------------------------------------------
B|-----------------------------------------------------------------------------
G|-----------------------------------------------------------------------------
D|-----------------------------------------------------------------------------
A|-----------------------------------------------------------------------------
E|--1--0--0--0--0--0--1--0--1--0--0--0--0--0--0--0--1--0--0--0--0--0--0--6--5--
http://www.guitartabcreator.com
Guitar Tab Creator is intended to store guitar tab created through the tool. It currently does not support in-line text editing. Any text you place in here will be lost. If you need to comment on your tab, please use the "Tab Notes" section located below.