Origins

(/) Slide Up  (\) Slide Down  (h) Hammer On  (p) Pull Off  (b) Bend (r) Release (v) Vibrato


E|-----------------------------------------------------------------------
B|-----------------------------------------------------------------------
G|-----------------------------------------------------------------------
D|-----------------------------------------------------------------------
A|-----------------------------------------------------------------------
E|--4--4--4--4--4--4--4--4--4--4----------4--4--4--4--4--4--4--4--4------



E|----------------------------------------------------------------------
B|----------------------------------------------------------------------
G|----------------------------------------------------------------------
D|----------------------------------------------------------------------
A|----------------------------------------------------------------------
E|--0--0--0--0--0--0--0--0--0------------0--0--0--0--0--0--0--0--0------



E|-----------------------------------------------------------------------------------
B|-----------------------------------------------------------------------------------
G|-----------------------------------------------------------------------------------
D|-----------------------------------------------------------------------------------
A|-----------------------------------------------------------------------------------
E|--0--0--------0--0--0--------0--0--------0--0--0--------5--5--------5--5--5--------



E|------------------------------
B|------------------------------
G|------------------------------
D|------------------------------
A|------------------------------
E|--5--5--5------0--8--0--3--5--



E|-----------------------------------------------------------------------------
B|-----------------------------------------------------------------------------
G|-----------------------------------------------------------------------------
D|-----------------------------------------------------------------------------
A|-----------------------------------------------------------------------------
E|--5--5--5--5--5--5--5--5--5--5--5--5--9--9--9--9--9--9--9--9--9--9--9--9-----



E|------------------------------------------------------------------------
B|------------------------------------------------------------------------
G|------------------------------------------------------------------------
D|------------------------------------------------------------------------
A|------------------------------------------------------------------------
E|--5--5--5----5--5--5--5----5--5--5----9--9--9----9--9--9--9----9--9--9--



E|-------------------------------------------------------------------
B|-------------------------------------------------------------------
G|-------------------------------------------------------------------
D|-------------------------------------------------------------------
A|-------------------------------------------------------------------
E|--0--0----0--0--0--0--0--0--0----0--0--0----0--0--0--0----0--0--0--



E|---------------------------------------------------------------------
B|---------------------------------------------------------------------
G|---------------------------------------------------------------------
D|---------------------------------------------------------------------
A|---------------------------------------------------------------------
E|--10--10--10--10--10--10--10--10--10--10--10--10--10--10--10--10-----



E|------------------------------------------------------------------
B|------------------------------------------------------------------
G|------------------------------------------------------------------
D|------------------------------------------------------------------
A|------------------------------------------------------------------
E|--12--12--12--12--12--12--12--12--12--12--12--12--12--12--12--12--



E|-------------------------------------------
B|-------------------------------------------
G|-------------------------------------------
D|-------------------------------------------
A|-------------------------------------------
E|--0--3--0--3--0--0----0--3--0--6--5--3--0--
http://www.guitartabcreator.com
Guitar Tab Creator is intended to store guitar tab created through the tool. It currently does not support in-line text editing. Any text you place in here will be lost. If you need to comment on your tab, please use the "Tab Notes" section located below.