Jaws

(/) Slide Up  (\) Slide Down  (h) Hammer On  (p) Pull Off  (b) Bend (r) Release (v) Vibrato


E|----------------------------------------------------------------------------------------------
B|----------------------------------------------------------------------------------------------
G|----------------------------------------------------------------------------------------------
D|----------------------------------------------------------------------------------------------
A|----------------------------------------------------------------------------------------------
E|--2--2--2--2--2--2--2--2--2----2--2--2--2--2--2--2--2--2------2--2--2--2--2--2--2--2--2-------



E|--------------------------------------------------------------
B|--------------------------------------------------------------
G|--------------------------------------------------------------
D|--------------------------------------------------------------
A|--------------------------------------------------------------
E|--2--2--2--2--3--3--3--3--3--3--3--3--0--0--0--0--0--0--0--0--



E|-------------------------------------------------------------------------------
B|-------------------------------------------------------------------------------
G|-------------------------------------------------------------------------------
D|-------------------------------------------------------------------------------
A|-------------------------------------------------------------------------------
E|--2----0--2--0--2----0--2--0--5----5--5--2----0--2--0--2----0--0--0----0----0--



E|------------------------------------------------------------------------------------
B|------------------------------------------------------------------------------------
G|------------------------------------------------------------------------------------
D|------------------------------------------------------------------------------------
A|------------------------------------------------------------------------------------
E|--2--2--2--2--2--2--2--2--2----2--2--2--2--2--2--2--2--2----2--2--2--2--2--2--2--2--



E|-------------------------------------
B|-------------------------------------
G|-------------------------------------
D|-------------------------------------
A|-------------------------------------
E|--2--2--2--2--2--2--2--2--2--3-------



E|--------------------------------------------------------------------------------
B|--------------------------------------------------------------------------------
G|--------------------------------------------------------------------------------
D|--------------------------------------------------------------------------------
A|--------------------------------------------------------------------------------
E|--2----2--2--2----2----2--2--2--2--2------2----2--2--2----2----2--2--2--3----0--



E|--------------------------------------------------------------------------------
B|--------------------------------------------------------------------------------
G|--------------------------------------------------------------------------------
D|--------------------------------------------------------------------------------
A|--------------------------------------------------------------------------------
E|--0----0--0--0----0----0--0--0--0--0------0----0--0--0----0----0--0--0--3----2--



E|---------------------------------------------------------------------------------------
B|---------------------------------------------------------------------------------------
G|---------------------------------------------------------------------------------------
D|---------------------------------------------------------------------------------------
A|---------------------------------------------------------------------------------------
E|--6----6----6--6--6--6--10--10----10--10--10--10--2--2----2--2--2--2--4----4--4--4--4--



E|--------------------------------------------------------------------------------------------
B|--------------------------------------------------------------------------------------------
G|--------------------------------------------------------------------------------------------
D|--------------------------------------------------------------------------------------------
A|-----6--10-------6--10--------10--12--------10--12-------2--4-----2--4-------4--6-----4--6--
E|--6-----------6-----------10------------10------------2--------2----------4--------4--------
http://www.guitartabcreator.com
Guitar Tab Creator is intended to store guitar tab created through the tool. It currently does not support in-line text editing. Any text you place in here will be lost. If you need to comment on your tab, please use the "Tab Notes" section located below.