possible acoustic 5-24-12

(/) Slide Up  (\) Slide Down  (h) Hammer On  (p) Pull Off  (b) Bend (r) Release (v) Vibrato


E|------------------------------------------
B|------------0-------------------0---------
G|-----9---------9---------9---------9------
D|--------11--------11--------11--------11--
A|--0-------------------0-------------------
E|------------------------------------------



E|------------------------------------------
B|------------0-------------------0---------
G|-----9---------9---------9---------9------
D|--------11--------11--------11--------11--
A|------------------------------------------
E|--0-------------------0-------------------



E|------------------------------------------
B|------------0-------------------0---------
G|-----9---------9---------9---------9------
D|--------11--------11--------11--------11--
A|------------------------------------------
E|--9-------------------9-------------------



E|------------------------------------------
B|------------0-------------------0---------
G|-----9---------9---------9---------9------
D|--------11--------11--------11--------11--
A|------------------------------------------
E|--0-------------------0-------------------
http://www.guitartabcreator.com
Guitar Tab Creator is intended to store guitar tab created through the tool. It currently does not support in-line text editing. Any text you place in here will be lost. If you need to comment on your tab, please use the "Tab Notes" section located below.