home made chords 5 - 23 -12

(/) Slide Up  (\) Slide Down  (h) Hammer On  (p) Pull Off  (b) Bend (r) Release (v) Vibrato

E|---------------
B|---------------
G|---------------
D|---------------
A|--6--8--9--10--
E|--5--5--5--5---



E|--------------
B|--------------
G|--------------
D|--------2--3--
A|--7--3--3--3--
E|--3--5--2--3--
http://www.guitartabcreator.com
Guitar Tab Creator is intended to store guitar tab created through the tool. It currently does not support in-line text editing. Any text you place in here will be lost. If you need to comment on your tab, please use the "Tab Notes" section located below.