happy hardcore 001

(/) Slide Up  (\) Slide Down  (h) Hammer On  (p) Pull Off  (b) Bend (r) Release (v) Vibrato


E|----------------------------------------------
B|----------------------------------------------
G|----------------------------------------------
D|--------7h8--------5h7--------3h5--------2h3--
A|--8--8-------7--7-------5--5-------3--3-------
E|----------------------------------------------



E|----------------------------------------------------
B|----------------------------------------------------
G|----------------------------------------------------
D|----------------------------------------------------
A|--------7h8--------7h8----------8h10----------7h10--
E|--8--8-------8--8-------10--10--------10--10--------
http://www.guitartabcreator.com
Guitar Tab Creator is intended to store guitar tab created through the tool. It currently does not support in-line text editing. Any text you place in here will be lost. If you need to comment on your tab, please use the "Tab Notes" section located below.