5-21-12

(/) Slide Up  (\) Slide Down  (h) Hammer On  (p) Pull Off  (b) Bend (r) Release (v) Vibrato


E|--------------------------------------------------------------------------
B|--------------------------------------------------------------------------
G|-----------------------------------------------------------------5--------
D|--------------------3--2--3--5--3--2--------------------3--2--3-----3--2--
A|--5--------4--1--0--------------------5--------4--1--0--------------------
E|-----1--0--------------------------------1--0-----------------------------



E|--------------------------------------------------------------------------------------------------
B|--------------------------------------------------------------------------------------------------
G|--------------------------------------------------------------------------------------17----------
D|--------------------------15--14--15--17--15--14--------------------------15--14--15------15--14--
A|--17----------16--13--12--------------------------17----------16--13--12--------------------------
E|------13--12------------------------------------------13--12--------------------------------------
http://www.guitartabcreator.com
Guitar Tab Creator is intended to store guitar tab created through the tool. It currently does not support in-line text editing. Any text you place in here will be lost. If you need to comment on your tab, please use the "Tab Notes" section located below.