2 16 12 tabs

(/) Slide Up  (\) Slide Down  (h) Hammer On  (p) Pull Off  (b) Bend (r) Release (v) Vibrato

E|--------------------------------------------------------------------------
B|--------------------------------------------------------------------------
G|--------------------------------------------------------------------------
D|------12------14/15------15------17\15------14------14--17\14-------------
A|----------------------------------------15------15-------------15--12-----
E|--12------12---------15------15-------------------------------------------



E|------------------------------------------
B|------------------------------------------
G|------------------15--15--12--12----------
D|--17--17--19--19------------------13--12--
A|------------------------------------------
E|------------------------------------------



E|----------------------------------------
B|----------------------------------------
G|----------14/15\14--10------10----------
D|------12----------------12------14--10--
A|--10------------------------------------
E|----------------------------------------
http://www.guitartabcreator.com
Guitar Tab Creator is intended to store guitar tab created through the tool. It currently does not support in-line text editing. Any text you place in here will be lost. If you need to comment on your tab, please use the "Tab Notes" section located below.