Snart tystnar musiken

(/) Slide Up  (\) Slide Down  (h) Hammer On  (p) Pull Off  (b) Bend (r) Release (v) Vibrato
E|-12-11-12-------------|-16-16b17-16-12-|---------------------------------|--------------------------
B|----------12-12-12b14-|----------------|----12-12h14--------9-9v---------|------9-------------------
G|----------------------|----------------|-13------------9-11------11p9h11-|-9-11---9---------9-------
D|----------------------|----------------|---------------------------------|----------11-9-11---------
A|----------------------|----------------|---------------------------------|--------------------------
E|----------------------|----------------|---------------------------------|--------------------------



E|-----------------------|--
B|-----------------------|--
G|-----------------------|--
D|------9--11---------9--|--
A|--11---------9--11-----|--
E|-----------------------|--
http://www.guitartabcreator.com
Guitar Tab Creator is intended to store guitar tab created through the tool. It currently does not support in-line text editing. Any text you place in here will be lost. If you need to comment on your tab, please use the "Tab Notes" section located below.