Some little diddy in D (i guess)

(/) Slide Up  (\) Slide Down  (h) Hammer On  (p) Pull Off  (b) Bend (r) Release (v) Vibrato


E|------------------------------------------------------------------
B|------------------------------------------------------------------
G|--12--12--12--12--11--11--11--11--15--15--15--15--15--15--15--15--
D|------------------------------------------------------------------
A|------------------------------------------------------------------
E|------------------------------------------------------------------



E|------------------------------------------------------------------
B|------------------------------------------------------------------
G|--12--12--12--12--15--15--15--15--11--11--11--11--12--12--12--12--
D|------------------------------------------------------------------
A|------------------------------------------------------------------
E|------------------------------------------------------------------



E|-----------------
B|-----------------
G|--12--11--15-----
D|--0---0---0------
A|-----------------
E|-----------------



E|--------------------------------------------------------
B|--------------------------------------------------------
G|--------------------------------------------------------
D|--------------------------4--4--------------0--0--------
A|--------------2--2--------------5--5--------------------
E|--3--3--3--3--------2--2--------------5--5--------3--3--



E|--------------------------------
B|--------------------------------
G|--------------------------------
D|--------------------------------
A|----------10--10--9--9----------
E|--10--10----------------12--12--
http://www.guitartabcreator.com
Guitar Tab Creator is intended to store guitar tab created through the tool. It currently does not support in-line text editing. Any text you place in here will be lost. If you need to comment on your tab, please use the "Tab Notes" section located below.