Song 1

(/) Slide Up  (\) Slide Down  (h) Hammer On  (p) Pull Off  (b) Bend (r) Release (v) Vibrato


E|--------------------------------------------------|
B|--------------------------------------------------|
G|--------------------------------------------------|
D|--7-7777-/10\-7-7777-/10\-7-7777-/10\-5-5555-/8\--| 2x
A|--7-7777-/10\-7-7777-/10\-7-7777-/10\-5-5555-/8\--|
E|--5-5555-/8-\-5-5555-/8-\-5-5555-/8-\-3-3333-/6\--|


E|-------------------------------------------|
B|-------------------------------------------|
G|-------------------------------------------|
D|--7-7-7-77-10-10-10-10\-5-5-5-55-8-8-8888--| 2x
A|--7-7-7-77-10-10-10-10\-5-5-5-55-8-8-8888--|
E|--5-5-5-55-8--8--8--8-\-3-3-3-33-6-6-6666--|


E|-------------------------------------------------|
B|-------------------------------------------------|
G|-------------------------------------------------|
D|--7-7777-/10\-7-7777-/10\-7-7777-/10\-5-5555/8\--| 2x
A|--7-7777-/10\-7-7777-/10\-7-7777-/10\-5-5555/8\--|
E|--5-5555-/8-\-5-5555-/8-\-5-5555-/8-\-3-3333/6\--|


E|----------------------------------------|
B|----------------------------------------|
G|-----------------------9-9-9-9-7-7-7-7--|
D|--7-7-7-77-10-10-10-10-9-9-9-9-7-7-7-7--|
A|--7-7-7-77-10-10-10-10-7-7-7-7-5-5-5-5--|
E|--5-5-5-55-8--8--8--8-------------------|


E|--------------------------------------------|
B|--------------------------------------------|
G|-----------------------9-9-9-9-12-12-12-12--|
D|--7-7-7-77-10-10-10-10-9-9-9-9-12-12-12-12--|
A|--7-7-7-77-10-10-10-10-7-7-7-7-10-10-10-10--|
E|--5-5-5-55-8--8--8--8-----------------------|


E|-------------------------------------------------|
B|-------------------------------------------------|
G|-------------------------------------------------|
D|--7-7777-/10\-7-7777-/10\-7-7777-/10\-5-5555/8\--| 2x
A|--7-7777-/10\-7-7777-/10\-7-7777-/10\-5-5555/8\--|
E|--5-5555-/8-\-5-5555-/8-\-5-5555-/8-\-3-3333/6\--|


E|--------------------------------|
B|--------------------------------|
G|-----------------9------7-------|
D|--7------10------9-(8x)-7-(8x)--|
A|--7-(8x)-10-(8x)-7------5-------|
E|--5------8----------------------|


E|---------------------------------|
B|---------------------------------|
G|-----------------9------12-------|
D|--7------10------9-(8x)-12-(8x)--|
A|--7-(8x)-10-(8x)-7------10-------|
E|--5------8-----------------------|


E|--------------------------------|
B|--------------------------------|
G|--------------------------------|
D|--7------10------5------8-------|
A|--7-(8x)-10-(8x)-5-(8x)-8-(8x)--|
E|--5------8-------3------6-------|


E|--------------------------------|
B|--------------------------------|
G|--------------------------------|
D|--7------10------5------3-------|
A|--7-(8x)-10-(8x)-5-(8x)-3-(8x)--|
E|--5------8-------3------1-------|


E|-----------------------------------|
B|-----------------------------------|
G|-----------------------------------|
D|--2-2-2-2-2-2-2-2-3-3-3-3-3-3-3-3--|
A|--2-2-2-2-2-2-2-2-3-3-3-3-3-3-3-3--|
E|--0-0-0-0-0-0-0-0-1-1-1-1-1-1-1-1--|
* * * * * * * * * * * * * * *


E|-----------------------------------|
B|-----------------------------------|
G|--------------------------3-3-3-3--|
D|--2-2-2-2-2-2-2-2-3-3-3-3-3-3-3-3--|
A|--2-2-2-2-2-2-2-2-3-3-3-3-1-1-1-1--|
E|--0-0-0-0-0-0-0-0-1-1-1-1----------|
* * * * * * * * * * * * * * * *


E|-----------------------------------|
B|-----------------------------------|
G|-----------------------------------|
D|--2-2-2-2-2-2-2-2-3-3-3-3-3-3-3-3--|
A|--2-2-2-2-2-2-2-2-3-3-3-3-3-3-3-3--|
E|--0-0-0-0-0-0-0-0-1-1-1-1-1-1-1-1--|
* * * * * * * * * * * * * * * *


E|-----------------------------------|
B|-----------------------------------|
G|--------------------------3-3-3-3--|
D|--2-2-2-2-2-2-2-2-3-3-3-3-3-3-3-3--|
A|--2-2-2-2-2-2-2-2-3-3-3-3-1-1-1-1--|
E|--0-0-0-0-0-0-0-0-1-1-1-1----------|
* * * * * * * * * * * * * * * *


E|--------------------------------------|
B|--------------------------------------|
G|------------------------------3-------|
D|--2------3------2------3------3-(4x)--| 2x
A|--2-(8x)-3-(8x)-2-(8x)-3-(4x)-1-------|
E|--0------1------0------1--------------|


E|-----------------------------------|
B|-----------------------------------|
G|------------------------------3-3--|
D|--2-2-2-2-3-3-3-3-2-2-2-2-3-3-3-3--|
A|--2-2-2-2-3-3-3-3-2-2-2-2-3-3-1-1--|
E|--0-0-0-0-1-1-1-1-0-0-0-0-1-1------|


E|----------------------------------|
B|----------------------------------|
G|------------------3-3-3-3-5-------|
D|--2-2-2-2-3-3-3-3-3-3-3-3-5-(8x)--|
A|--2-2-2-2-3-3-3-3-1-1-1-1-3-------|
E|--0-0-0-0-1-1-1-1-----------------|


E|----------------------------------------------|
B|----------------------------------------------|
G|----------------------------------------------|
D|--7-7777/10\-7-7777/10\-7-7777/10\-5-5555/8\--| 2x
A|--7-7777/10\-7-7777/10\-7-7777/10\-5-5555/8\--|
E|--5-5555/8-\-5-5555/8-\-5-5555/8-\-3-3333/6\--|


E|-------------------------------------------|
B|-------------------------------------------|
G|-------------------------------------------|
D|--7-7-7-77-10-10-10-10\-5-5-5-55-8-8-8888--| 2x
A|--7-7-7-77-10-10-10-10\-5-5-5-55-8-8-8888--|
E|--5-5-5-55-8--8--8--8-\-3-3-3-33-6-6-6666--|


E|--------------------------------|
B|--------------------------------|
G|-----------------9------7-------|
D|--7------10------9-(8x)-7-(8x)--|
A|--7-(8x)-10-(8x)-7------5-------|
E|--5------8----------------------|


E|---------------------------------|
B|---------------------------------|
G|-----------------9------12-------|
D|--7------10------9-(8x)-12-(8x)--|
A|--7-(8x)-10-(8x)-7------10-------|
E|--5------8-----------------------|


E|----------------------------------|
B|----------------------------------|
G|----------------------------------|
D|--7------10------12------11-------|
A|--7-(8x)-10-(8x)-12-(8x)-11-(8x)--|
E|--5------8-------10------9--------|


E|----------------------------------|
B|----------------------------------|
G|----------------------------------|
D|--7------10------12------14-------|
A|--7-(8x)-10-(8x)-12-(8x)-14-(8x)--|
E|--5------8-------10------12-------|


E|-------------------------------------------|
B|-------------------------------------------|
G|-------------------------------------------|
D|--7-7-7-77-10-10-10-10\-5-5-5-55-8-8-8888--| 2x
A|--7-7-7-77-10-10-10-10\-5-5-5-55-8-8-8888--|
E|--5-5-5-55-8--8--8--8-\-3-3-3-33-6-6-6666--|


E|---------------------------------------------------|
B|---------------------------------------------------|
G|---------------------------------------------------|
D|--7-7777------7-7777------7-7777------5-5555-------| 2x
A|--7-7777------7-7777------7-7777------5-5555-------|
E|--5-5555-8888-5-5555-8888-5-5555-8888-3-3333-6666--|
**** **** **** ****


E|----------------------|
B|----------------------|
G|----------------------|
D|--7~~~~~~~~~~~~~~~7\--|
A|--7~~~~~~~~~~~~~~~7\--|
E|--5~~~~~~~~~~~~~~~5\--|
Guitar Tab Creator is intended to store guitar tab created through the tool. It currently does not support in-line text editing. Any text you place in here will be lost. If you need to comment on your tab, please use the "Tab Notes" section located below.