Beginnings

(/) Slide Up  (\) Slide Down  (h) Hammer On  (p) Pull Off  (b) Bend (r) Release (v) Vibrato
E|-------------------------------------------------------------------
B|-----------0-------------------------------------------------------
G|--------2-----6-----------0----------------------------------------
D|-----2-----------------2-----4--------0--4--------0----------------
A|--0-----------------2--------------2-----------2-----2----7--------
E|-----------------0--------------0-----------0----------------------



E|--------7---------12--10--8--5----------10--8--6--3---------------------------
B|-----9-----10/12------------------8/10-------------------------------------3--
G|--9------------------------------------------------------------0--------2-----
D|------------------------------------------------------------2--------4--------
A|---------------------------------------------------------2--------4-----------
E|------------------------------------------------------------------------------



E|---------------0-------------------------------------------------------------------------3-----
B|---------------0---------------0------------------------------------------------------0--------
G|---------------2------------2-----5-----------0------------------------------------2-----------
D|--7/9--5--4----2---------2-----------------2-----4--------0--4--------0---------2--------------
A|---------------0------0-----------------2--------------2-----------2-----2v--0-----------------
E|-------------------------------------0--------------0-----------0------------------------------



E|--------------------------------------------------------------
B|-----------------------------------------3-----------1--------
G|-----------0--------------------------------0-----5-----0-----
D|--------2-----2--------0--4--------0-----------4-----------2--
A|-----2--------------2-----------2-----2-----------------------
E|--0--------------0-----------0--------------------------------
http://www.guitartabcreator.com
Guitar Tab Creator is intended to store guitar tab created through the tool. It currently does not support in-line text editing. Any text you place in here will be lost. If you need to comment on your tab, please use the "Tab Notes" section located below.