the dirty dirty south song by austin frank

(/) Slide Up  (\) Slide Down  (h) Hammer On  (p) Pull Off  (b) Bend (r) Release (v) Vibrato
E|-----------------------------------------------------------------------------------------
B|-----------------------------------------------------------------------------------------
G|-----------------------------------------------------------------------------------------
D|----------10------10----------------------10--12--13--12--10------------10-----10--------
A|--12--12------12------12--12--10--10--10----------------------12--9--9------9------9--9--
E|-----------------------------------------------------------------------------------------



E|-------------------------------------
B|-------------------------------------
G|-------------------------------------
D|-----------10-------------10---------
A|--8--8--8------8--10--10------10/12--
E|-------------------------------------



E|---------------------------------------------------------------------
B|---------------------------------------------------------------------
G|---------------------------2--2----2----2--2----2----2--2--2----2----
D|---------------------------2--2----2----2--2----2----0--2--2----2----
A|---------------------------0--3p0--3p0--0--3p0--3p0-----0--3p0--3p0--
E|--5b5--5--5--5--5--5--5b7--------------------------------------------



E|------------------------------------------------------------------------------------
B|------------------------------------------------------------------------------------
G|--5p2-----2-----------------------2--2----2----2--2----2----2--2--2--2----2---------
D|-------5-----5p2-----2------------2--2----2----2--2----2----0--2--2--2----2----2/7--
A|------------------5-----3p0--3h5--0--3p0--3p0--0--3p0--3p0-----0--0--3p0--3p0--0----
E|------------------------------------------------------------------------------------



E|-----------------------------------------------------------------------------------------------------
B|-----------------------------------------------------------------------------------------------------
G|--------5-----5-----------------5--7--8--7--5-----------5-----5-----------------5-----------5--------
D|--7--7-----7-----7--7--5--5--5-----------------7--4--4-----4-----4--4--3--3--3-----3--5--5-----------
A|-----------------------------------------------------------------------------------------------------
E|-----------------------------------------------------------------------------------------------------
http://www.guitartabcreator.com
Guitar Tab Creator is intended to store guitar tab created through the tool. It currently does not support in-line text editing. Any text you place in here will be lost. If you need to comment on your tab, please use the "Tab Notes" section located below.