Hallelujah

(/) Slide Up  (\) Slide Down  (h) Hammer On  (p) Pull Off  (b) Bend (r) Release (v) Vibrato
E|-----------------------------------------
B|-----------1-----------------1-----------
G|--------0-----0-----------2-----2--------
D|-----2-----------------2-----------------
A|--3--------------2--0--------------2-----
E|-----------------------------------------



E|--------------------------------------------------------------------------
B|-----------1-----------------1-----------------1-----------------1--------
G|--------0-----0-----------2-----2-----------0-----0-----------2-----2-----
D|-----2-----------------2-----------------2-----------------2-----------2--
A|--3--------------2--0--------------2--3--------------2--0-----------------
E|--------------------------------------------------------------------------



E|-----------1-----------------3-----------------0-----------------3--
B|--------1-----1-----------3-----3-----------------1-----------------
G|-----2-----------2-----4-----------4--------0--------0--------0-----
D|--3-----------------5--------------------2-----------------0--------
A|--------------------------------------3-----------------------------
E|--------------------------------------------------------3-----------



E|--------------------------------------
B|-----------1-----------1--------3-----
G|--------0-----0-----------2--------4--
D|-----2-----------2--3--------5--------
A|--3-----------------------------------
E|--------------------------------------



E|-------5-----------5-----------7------------10------------0-------
B|---5-----5-----6-----6-----8-----8-----9-------9------------1-----
G|-----5-----5-----5-----5-----7-----7-----10------10-----2-----2---
D|-7-----------7-----------9-----------9----------------2-----------
A|----------------------------------------------------0-----------0-
E|------------------------------------------------------------------



E|-----------1--------1--------1-----------------0--------0--------0--------
B|--------1-----1--------1--------1-----------------1--------1--------1-----
G|-----2-----------2--------2--------2--------2--------2--------2--------2--
D|--3--------------------------------------2--------------------------------
A|--------------------------------------0-----------------------------------
E|--------------------------------------------------------------------------



E|-----------1--------1--------1-----------------0-----------------3--------
B|--------1-----1--------1--------1-----------------1-----------------0-----
G|-----2-----------2--------2--------2--------0--------0--------0--------0--
D|--3--------------------------------------2-----------------0--------------
A|--------------------------------------3-----------------------------------
E|--------------------------------------------------------3-----------------
http://www.guitartabcreator.com
Guitar Tab Creator is intended to store guitar tab created through the tool. It currently does not support in-line text editing. Any text you place in here will be lost. If you need to comment on your tab, please use the "Tab Notes" section located below.